Oops, an error
Loading. Please wait.

Oops I Did It Again tab

version 1
version 1

Whole song

29,906 views 18 this week
2 commentsread comments
1 2 3 4 5
x 8
add to favorites
×
Save as Personal and add changes to this tab that will be seen only by you. Learn more ›
×
You can save this tab as Personal to edit and correct it or add notes. All changes will be seen only by you. Learn more »
launch autoscroll
font size
0
reset
how to read this tab
guitar tuner
backing track
0:00
0:00
edit
Autoscroll
slow
fast
+/-
esc
set tempo
stop
Author
Difficulty
                         Oops i did it again tab
                            children of bodom
submitted by ben garland
contact if any notced mistakes 
metal24_7@hotmail.com

Gtr I (C G C F A D) - 'Rythm-ROOPE LATVALA
Gtr II (C G C F A D) - 'solo-ALEXI LAIHO

  Q=105
 4/4
  Gtrs I
  E. E. E. E. Q    W          E. E. E. E. Q    W          E. E. E. E. Q
|----------------|----------|----------------|----------|----------------|
|----------------|----------|----------------|----------|----------------|
|----------------|----------|----------------|----------|----------------|
|----------------|----------|----------------|----------|----------------|
|-0-----0--------|----------|-0-----0--------|----------|-0-----0--------|
|-0-----0--------|----------|-0-----0--------|----------|-0-----0--------|


 7/8
  H    Q  S S
|----------------|
|----------------|
|----------------|
|---------x-x----|
|---------x-x----|
|---------x-x----|


 4/4
  E. E. E. E. Q    H    Q.   S S   Q  H.        W
|----------------|---------------|------------|----------|
|----------------|---------------|------------|----------|
|----------------|---------------|------------|----------|
|----------------|-----------x-x-|------------|----------|
|-0-----0--------|-----------x-x-|-0----------|----------|
|-0-----0--------|-----------x-x-|-0----------|----------|

                  PM|
  W          H    S S Q.     H.      +E   E   H    E E E E
|----------|---------------|----------------|---------------|
|----------|---------------|----------------|---------------|
|----------|---------------|----------------|---------------|
|----------|----------7----|----------------|--------x-x----|
|-5--------|-7-------------|-8-------(8)-10-|--------x-x----|
|-5--------|-7----7-7------|-8-------(8)-10-|--------x-x----|


  PM------------------------------------------------------------------|
  E E E E E E E E   E E E E E E E E   E E E E E E E E   E E E E E E E E
|-----------------|-----------------|-----------------|-----------------|
|-----------------|-----------------|-----------------|-----------------|
|-----------------|-----------------|-----------------|-----------------|
|---------2-2-2-2-|---------5-5-5-5-|---------5-5-5-5-|-----------------|
|-0-0-0-0-0-0-0-0-|-0-0-0-0-3-3-3-3-|-3-3-3-3-3-3-3-3-|-3-3-3-3-7-7-7-7-|
|-0-0-0-0---------|-0-0-0-0---------|-3-3-3-3---------|-3-3-3-3-7-7-7-7-|


  PM------------------------------------------------|
  E E E E E E E E   E E E E E E E E   E E E E E E E E   E E E Q E E E
|-----------------|-----------------|-----------------|----------------|
|-----------------|-----------------|-----------------|----------------|
|-----------------|-----------------|-----------------|----------------|
|---------2-2-2-2-|---------5-5-5-5-|-----------------|-2---2---2---2--|
|-0-0-0-0-0-0-0-0-|-0-0-0-0-3-3-3-3-|-3-3-3-3-3-3-3-3-|-0---0---0---0--|
|-0-0-0-0---------|-0-0-0-0---------|-3-3-3-3-3-3-3-3-|----------------|


  E E H.        E E E Q.   Q
|-------------|----------------|
|-------------|----------------|
|-------------|----------------|
|-0-----------|----------------|
|-0-----------|---0-0------7\--|
|-0-----------|---0-0------7\--|


  PM-------------------------------------------------------------------------|
  E E E E E E E E   E E E E E E E E   E   E E E E   E E E   E    E E E E E E E
|-----------------|-----------------|---------------------|--------------------|
|-----------------|-----------------|---------------------|--------------------|
|-----------------|-----------------|---------------------|--------------------|
|-3-3-3-3-3-3-3-3-|-2-2-2-2-2-2-2-2-|---------------------|--------------------|
|-1-1-1-1-1-1-1-1-|-0-0-0-0-0-0-0-0-|-0---0-0-0-0---0-0-0-|-0----0-0-0-0-0-0-0-|
|-----------------|-----------------|-0---0-0-0-0---0-0-0-|-0----0-0-0-0-0-0-0-|
|
| Gtr II
| W                 W                 H         H           W
|-----------------|-----------------|---------------------|--------------------|
|-----------------|-----------------|-3---------5---------|-6------------------|
|-----------------|-----------------|-5b7-------7b9-------|-8b10---------------|
|-----------------|-----------------|---------------------|--------------------|
|-----------------|-----------------|---------------------|--------------------|
|-----------------|-----------------|---------------------|--------------------|


  PM-----------------------------------|
  E    E E E E E E E   E   E E E E E E E   W
|--------------------|-------------------|----------|
|--------------------|-------------------|----------|
|--------------------|-------------------|----------|
|-3----3-3-3-3-3-3-3-|-2---2-2-2-2-2-2-2-|----------|
|-1----1-1-1-1-1-1-1-|-0---0-0-0-0-0-0-0-|-5--------|
|--------------------|-------------------|-5--------|
|
| W                    W                   W
|--------------------|-------------------|----------|
|-6------------------|-5-----------------|----------|
|-8b10---------------|-7b9---------------|----------|
|--------------------|-------------------|----------|
|--------------------|-------------------|----------|
|--------------------|-------------------|----------|


       PM|                                        ~
  H    S S Q.     H.      +E   E   E  E  E Q  E   Q
|---------------|----------------|-------------------|
|---------------|----------------|-------------------|
|---------------|----------------|------------5b7-5--|
|----------7----|----------------|-------------------|
|-7-------------|-8-------(8)-10-|---10-10-----------|
|-7----7-7------|-8-------(8)-10-|---10-10-----------|
|
| W               W                W
|---------------|----------------|-------------------|
|---------------|----------------|-------------------|
|---------------|----------------|-------------------|
|---------------|----------------|-------------------|
|---------------|----------------|-------------------|
|---------------|----------------|-------------------|


  PM------------------------------------------------------------------|
  E E E E E E E E   E E E E E E E E   E E E E E E E E   E E E E E E E E
|-----------------|-----------------|-----------------|-----------------|
|-----------------|-----------------|-----------------|-----------------|
|-----------------|-----------------|-----------------|-----------------|
|---------2-2-2-2-|---------5-5-5-5-|---------5-5-5-5-|-----------------|
|-0-0-0-0-0-0-0-0-|-0-0-0-0-3-3-3-3-|-3-3-3-3-3-3-3-3-|-3-3-3-3-7-7-7-7-|
|-0-0-0-0---------|-0-0-0-0---------|-3-3-3-3---------|-3-3-3-3-7-7-7-7-|


  PM------------------------------------------------|
  E E E E E E E E   E E E E E E E E   E E E E E E E E   E E H.
|-----------------|-----------------|-----------------|-----------|
|-----------------|-----------------|-----------------|-----------|
|-----------------|-----------------|-----------------|-----------|
|---------2-2-2-2-|---------5-5-5-5-|-----------------|-----------|
|-0-0-0-0-0-0-0-0-|-0-0-0-0-3-3-3-3-|-3-3-3-3-3-3-3-3-|-7---------|
|-0-0-0-0---------|-0-0-0-0---------|-3-3-3-3-3-3-3-3-|-7---------|


              \1____/
  E. E. E. S  E    +Q       +W
|------------------------|--------------|
|------------------------|--------------|
|------------------------|--------------|
|----------x-<5>--(<5>)--|-(<5>)--------|
|-0-----0--x-<5>--(<5>)--|-(<5>)--------|
|-0-----0----------------|--------------|


        H.=H                        Q=70
        \2______\3_____\7___________________
  E. E. H      +E     +W            +W
|-------------------|-------------|--------|
|-------------------|-------------|--------|
|-------------------|-------------|--------|
|-------------------|-------------|--------|
|-0-----0------(0)--|-(0)---------|-(0)----|
|-0-----0------(0)--|-(0)---------|-(0)----|


  Q=105

                           PM------------------------------
  E E  H            Q      E      E   E  E E  E  E  E
|-----------------------|---------------------------------|
|-----------------------|---------------------------------|
|-----------------------|---------------------------------|
|-----------------------|------------------5--5--5--5-----|
|-0-----------------7\--|--0------0---0--0-3--3--3--3-----|
|-0-----------------7\--|--0------0---0--0----------------|
|
| Gtr II
|               ~~~                      ~~
| Q    E     E  Q   Q      E     +E   E  Q    E  E  E
|-----------------------|---------------------------------|
|-----------------------|-13----(13)------------13-13-----|
|-----12b14====12r------|-12b14r(12)-10-12---10----12b14==|
|-----------------------|---------------------------------|
|-----------------------|---------------------------------|
|-------------------7\--|---------------------------------|


 ----------------------------------------------------------------------------------------|
    E   E    E   E     E  E     E     E       E  E  E        E  E       E        E        E
|------------------------------------------|------------------------------------------------------|
|------------------------------------------|------------------------------------------------------|
|------------------------------------------|------------------------------------------------------|
|----------------------5--5-----5-----5----|------------------------------------------------------|
|---3---3----3---3-----3--3-----3-----3----|--3--3--3--------3--7-------7--------7--------7-------|
|---3---3----3---3-------------------------|--3--3--3--------3--7-------7--------7--------7-------|
|
|                         PM------------|
|                                                   |--3--|     |--3--| |--3--|  |--3--|  |--3--|
|  +E   S S  E   S  S  E  S  S  S  S  S  S    E  E  S  S  S  E  S  S  S S  S  S  S  S  S  S  S  S
|------------------------------------------|-------------------13-10------15-13-16-13-15-13-------|
|-(13)-13---13-----------------------------|-10-11-10h11p10----------13-x-------------------15-13-|
|-(12)-12---12r-12-10-12-------10-10-12-12-|----------------12------------------------------------|
|------------------------10-10-------------|------------------------------------------------------|
|------------------------------------------|------------------------------------------------------|
|------------------------------------------|------------------------------------------------------|


   PM----------------------------------------------------------
   E    E  E          E    E           E    E    E
|-------------------------------------------------------------|
|-------------------------------------------------------------|
|-------------------------------------------------------------|
|--------------------------2-----------2----2----2------------|
|--0----0--0----------0----0-----------0----0----0------------|
|--0----0--0----------0---------------------------------------|
|
|  E    E  S..   +S..    S     S     S    e    e    S     +S
|-------------------------------------------------------------|
|-20b22---20b22r(20)----18---[20]b22-----20---18--------------|
|--------------------------------------------------19b21r(19)-|
|-------------------------------------------------------------|
|-------------------------------------------------------------|
|-------------------------------------------------------------|


 --------------------------------------------------------------------------------|
    E  E     E     E     E     E     E     E         E   E   E   E   E  E    E    E
|------------------------------------------------|-----------------------------------|
|------------------------------------------------|-----------------------------------|
|------------------------------------------------|-----------------------------------|
|------------------------5-----5-----5-----5-----|-----------------------------------|
|---0--0-----0-----0-----3-----3-----3-----3-----|---3---3---3---3---3--3----3----3--|
|---0--0-----0-----0-----------------------------|---3---3---3---3---3--3----3----3--|
|
|                                                                \1/    \1/  \1/
|  +E.    S  S  S  S  S  S  S  S  S  S  S  E        +E   E  +E   Q      E    E    E
|-----------10----12----13----15----17----17b18==|=(17)-17r(17)-15-------------------|
|--------10----10----10----13----13----13--------|---------------------18---18---17--|
|-(19)-------------------------------------------|-----------------------------------|
|------------------------------------------------|-----------------------------------|
|------------------------------------------------|-----------------------------------|
|------------------------------------------------|-----------------------------------|


            PM                PM                PM                PM-------
   E        E        E        E        E        E        E        E
|-------------------------------------------------------------------------|
|-------------------------------------------------------------------------|
|-------------------------------------------------------------------------|
|--2-----------------2-----------------2-----------------2----------------|
|--0--------0--------0--------0--------0--------0--------0--------0-------|
|-------------------------------------------------------------------------|
|
|  |--3--|  |--3--|  |--3--|  |--3--|  |--3--|  |--3--|  |--3--|  |--3--|
|  S  S  S  S  S  S  S  S  S  S  S  S  S  S  S  S  S  S  S  S  S  S  S  S
|-17p13----------13h17p13----------13-15-12-13-15-17-13-15-17-18-17-18-20-|
|-------15----15----------15----15----------------------------------------|
|----------14----------------14-------------------------------------------|
|-------------------------------------------------------------------------|
|-------------------------------------------------------------------------|
|-------------------------------------------------------------------------|


 ---------------------------------|
   S S S S S  S S S S S S S S S S S
|-----------------------------------|
|-----------------------------------|
|-----------------------------------|
|-----------------------------------|
|-------------------0-0-0-0-0-0-0-0-|
|--0-0-0-0-0--0-0-0-----------------|
|
|  ~~
|  Q       H.
|-22--------------------------------|
|-----------------------------------|
|-----------------------------------|
|-----------------------------------|
|-----------------------------------|
|-----------------------------------|


  PM-------------------------------
  S S S S S S S S S S S S S S S S
|---------------------------------|
|---------------------------------|
|---------------------------------|
|---------------------------------|
|-----------------3-3-3-3-3-3-3-3-|
|-0-0-0-0-0-0-0-0-----------------|


 -----------------------------------------------------------------|
  S S S S S S S S S S S S S S S S   S S S S S S S S S S S S S S S S
|---------------------------------|---------------------------------|
|---------------------------------|---------------------------------|
|---------------------------------|---------------------------------|
|---------------------------------|---------------------------------|
|-----------------3-3-3-3-3-3-3-3-|-----------------0-0-0-0-0-0-0-0-|
|-3-3-3-3-3-3-3-3-----------------|-3-3-3-3-3-3-3-3-----------------|


  PM-----------------------------------------------------------------
  S S S S S S S S S S S S S S S S   S S S S S S S S S S S S S S S S
|---------------------------------|---------------------------------|
|---------------------------------|---------------------------------|
|---------------------------------|---------------------------------|
|---------------------------------|---------------------------------|
|-----------------0-0-0-0-0-0-0-0-|-----------------3-3-3-3-3-3-3-3-|
|-0-0-0-0-0-0-0-0-----------------|-0-0-0-0-0-0-0-0-----------------|
|
| W                                 W
|---------------------------------|---------------------------------|
|---------------------------------|---------------------------------|
|---------------------------------|---------------------------------|
|---------------------------------|---------------------------------|
|---------------------------------|---------------------------------|
|---------------------------------|---------------------------------|


 -------------------------------------------------------------------|
  S S S S S S S S S S S S S S S S   S  S S S S S S S S S S S S  S S S
|---------------------------------|--------------------------------------|
|---------------------------------|--------------------------------------|
|---------------------------------|--------------------------------------|
|---------------------------------|--------------------------------------|
|---------------------------------|-0--0-0-0-0-0-0-0-0-0-0-0-0--0-0-0----|
|-3-3-3-3-3-3-3-3-3-3-3-3-3-3-3-3-|--------------------------------------|
|
| W                                 H.                       Q
|---------------------------------|--------------------------------------|
|---------------------------------|--------------------------------------|
|---------------------------------|--------------------------------------|
|---------------------------------|--------------------------------------|
|---------------------------------|--------------------------------------|
|---------------------------------|--------------------------7\----------|


        PM|       PM---|        PM|      PM----|
   E    S S  E    S    S     E  S S  E   S       S
|---------------------------------------------------|
|---------------------------------------------------|
|---------------------------------------------------|
|----------------------------2-------2--------------|
|--0---------0---------------0--0-0--0---0-------0--|
|--0----0-0--0----0----0----------------------------|
|
|            \1/
|  ~~~~~
|                 |---3---|
|  Q         E    S  S    S  E  E    E   S      +S
|-20b22-----22---22h24p==22-21-22---24-[24]b25r(24)-|
|---------------------------------------------------|
|---------------------------------------------------|
|---------------------------------------------------|
|---------------------------------------------------|
|---------------------------------------------------|


         PM|     PM|      PM|      PM|        PM|      PM|      PM|      PM|
     E   S  S E  S  S  E  S  S  E  S  S    E  S  S  E  S  S  E  S  S  E  S S
|---------------------------------------|-------------------------------------|
|---------------------------------------|-------------------------------------|
|---------------------------------------|-------------------------------------|
|----------------------5--------5-------|--------------------5--------5-------|
|----0--------0--------3--3--3--3--3--3-|--3--------3--------3--3--3--3--3-3--|
|----0---0--0-0--0--0-------------------|--3--3--3--3--3--3-------------------|
|
|           ~~                                                           ~~
|   +E      Q    S  S  E  S  S  E  S  S    E  S  S  S  S  S  S  E  E  E  E
|-([24])---22---22-20-------------------|----------------17-17-15-17-18-17----|
|---------------------20----18-20-18-20-|-22-------18-18----------------------|
|------------------------21-------------|----17-17----------------------------|
|---------------------------------------|-------------------------------------|
|---------------------------------------|-------------------------------------|
|---------------------------------------|-------------------------------------|


        PM|      PM|      PM|            PM---|       PM|    PM|   PM|   PM|
    E   S  S  E  S  S  E  S  S  E        S     S    E S S  E S S E S S E S S
|------------------------------------------------|---------------------------|
|------------------------------------------------|---------------------------|
|------------------------------------------------|---------------------------|
|----------------------2--------2----------------|---------------2-----2-----|
|---3---------3--------0--0--0--0--------0-----0-|--0------0-----0-0-0-0-0-0-|
|---3---3--3--3--3--3----------------------------|--0-0-0--0-0-0-------------|
|
|   ~~~~                                            ~~
|  +E   S  S  S  S  S  S  S  S  S  S  S  S  S  S    Q   H.
|-(17)-18-17-15----------------------------------|---------------------------|
|---------------18-17-15-------------------------|---------------------------|
|------------------------17-15-14----------------|---------------------------|
|---------------------------------17-15-14-------|---------------------------|
|------------------------------------------17-15-|-17------------------------|
|------------------------------------------------|---------------------------|


         PM|         PM---|          PM-|      PM|
   E     S  S     E  S     S  E      S   S  E  S  S
|--------------------------------------------------------|
|--------------------------------------------------------|
|--------------------------------------------------------|
|-----------------------------5-------------5------------|
|--0--------------0-----------3------3---3--3--3--3------|
|--0-----0--0-----0--0-----0-----------------------------|
|
|  E     S  E     S  E     S  S     +S   S  S  S  S  S
|-------20-------20-------20-----------------------------|
|-20b22----20b22----20b22----20b22r(20)-18---------------|
|------------------------------------------21-17---------|
|------------------------------------------------19-17---|
|--------------------------------------------------------|
|--------------------------------------------------------|


    PM|   PM|   PM|   PM|
  E S S E S S E S S E S S   E E H.
|-------------------------|-----------*|
|-------------------------|-----------*|
|-------------------------|-----------*|
|-------------------------|-2---------*|
|-3-----3-----3-----3-----|-0---------*|
|-3-3-3-3-3-3-3-3-3-3-3-3-|-----------*|

Tablature Legend
----------------
 h   - hammer-on
 p   - pull-off
 b   - bend
 pb  - pre-bend
 r   - bend release (if no number after the r, then release immediately)
 /\  - slide into or out of (from/to "nowhere")
 s   - legato slide
 S   - shift slide
  - natural harmonic
[n]  - artificial harmonic
n(n) - tapped harmonic
 ~   - vibrato
 tr  - trill
 T   - tap
 TP  - trem. picking
 PM  - palm muting
\n/  - tremolo bar dip; n = amount to dip
 \n  - tremolo bar down
 n/  - tremolo bar up
/n\  - tremolo bar inverted dip
 =   - hold bend; also acts as connecting device for hammers/pulls
 <>  - volume swell (louder/softer)
 x   - on rhythm slash represents muted slash
 o   - on rhythm slash represents single note slash

            
            
Suggest correction
Creating personal tab
Creating personal tab
You can edit any tab online and save it as your Personal.

You can edit, replace or remove any tab part or add personal notes – all changes will be seen only by you.

Personal tabs can be accessed anytime from any device, even offline.
Learn more »
comments
print report bad tab
2 comments total.
0 reply
i_am_metalhead 120 Mar 26, 2007 08:54 PM

Not accurate

0 reply
dnoel8 10 Apr 11, 2008 07:20 PM

Spot on except for that little bit of the last solo before the bends

guest
You may want to rate the tab now too:
select rating
Wanna post a correction for this tab? Suggest correction