Oops, an error
Loading. Please wait.

Punch Me I Bleed Bass Tab

version 1
version 1

Whole song

1,430 views 1 this week
no commentswrite comment
1 2 3 4 5
2 more votes to show rating
add to favorites
launch autoscroll
font size
0
reset
guitar tuner
Autoscroll
slow
fast
+/-
esc
set tempo
stop
Help us to improve Ultimate-Guitar.com Take our survey!
×
Author
Difficulty
Tabbers playing skills
intermediate
intermediate +
There you go James... :)
( from hurlyz )


                               Punch Me I Bleed                                 


                                                               Children Of Bodom
Henkka Blacksmith



                                     W                   W                 
F||-------|-------|-------|-------|-------------------|-------------------|
C||-------|-------|-------|-------|-------------------|-------------------|
G||-------|-------|-------|-------|-------------------|-------------------|
C||-------|-------|-------|-------|--0----------------|--L----------------|


  E  E  Q    H           E  E  E  E  Q    Q       E  E  E  E  E  E  E  E   
----------------------|------------------------|--------------------------|
----------------------|------------------------|--------------------------|
----------------------|--0--0--0--0--1----3----|--------------------------|
--0--0----------------|------------------------|--0--0--0--0--0--0--0--0--|


  E  E  E  E  E  E  E  E     E  E  E  E  E  E  E  E     Q    E  Q.     Q     
--------------------------|--------------------------|----------------------|
--------------------------|--------------------------|----------------------|
--------------------3--3--|--------------------------|----------------------|
--0--0--0--0--0--0--------|--0--0--0--0--0--0--0--5--|--7----7--6------2----|


  E  E  E  E  E  E  E  E     E  E  E  E  E  E  E  E   
--------------------------|--------------------------|
--------------------------|--------------------------|
--------------------------|--------------------3--3--|
--0--0--0--0--0--0--0--0--|--0--0--0--0--0--0--------|


  E  E  E  E  E  E  E  E     E  E  E  E  Q    Q       E  E  Q     
--------------------------|------------------------|-------------|
--------------------------|------------------------|-------------|
--------------------------|--0--0--0--0--1----3----|-------------|
--0--0--0--0--0--0--3--5--|------------------------|--0--0-------|


    E  E  E  Q    E  E  E       E  E  E  Q    E  S S E   
---------------------------|----------------------------|
---------------------------|----------------------------|
---------------------------|----------------------------|
--5g6--5-----0----0--0--0--|--5g6--5-----0----0--0-0-0--|


    E  E  E  Q    E  E  S S    Q    E  Q.     Q         E  E  E  Q    E  E  E   
----------------------------|----------------------|---------------------------|
----------------------------|----------------------|---------------------------|
----------------------------|----------------------|---------------------------|
--5g6--5-----0----0--0--0-5-|--7----7--6------9----|--5g6--5-----0----0--0--0--|


                  |-3-|                                      
    E  E  E  Q    S S S  Q          E  E  E  Q    E  E  S S  
-------------------------------|----------------------------|
-------------------------------|----------------------------|
-------------------------------|----------------------------|
--5g6--5-----0----0-0-0-12S----|--5g6--5-----0----0--0--0-0-|


  Q    E  Q    E  Q       E  E  E  E  E  E  E  E     E  E  E  E  E  E  E  E   
-----------------------|--------------------------|--------------------------|
---------------5-------|--------------------------|--------------------------|
--1----1--3-------7----|--------------------------|--------------------3--3--|
-----------------------|--0--0--0--0--0--0--0--0--|--0--0--0--0--0--0--------|


  E  E  E  E  E  E  E  E     Q    E  Q.     Q       E  E  E  E  E  E  E  E   
--------------------------|----------------------|--------------------------|
--------------------------|----------------------|--------------------------|
--------------------------|----------------------|--------------------------|
--0--0--0--0--0--0--0--5--|--7----7--6------2----|--0--0--0--0--0--0--0--0--|


  E  E  E  E  E  E  E  E     E  E  E  E  E  E  E  E     E  E  E  E  Q    Q     
--------------------------|--------------------------|------------------------|
--------------------------|--------------------------|------------------------|
--------------------3--3--|--------------------------|--0--0--0--0--1----3----|
--0--0--0--0--0--0--------|--0--0--0--0--0--0--3--5--|------------------------|


  S S S S S S E  H           S S S S S S E  H         
--------------------------|--------------------------|
--------------------------|--------------------------|
--------------------------|--------------------------|
--0-0-0-0-0---------------|--0-0-0-0-0---------------|


  S S S S S S E  H           S S S S S S E  H         
--------------------------|--------------------------|
--------------------------|--------------------------|
--3-3-3-3-3---------------|--3-3-3-3-3---------------|
--------------------------|--------------------------|


  S S S S S S E  H           S S S S S S E  H         
--------------------------|--------------------------|
--------------------------|--------------------------|
--------------------------|--------------------------|
--0-0-0-0-0---------------|--0-0-0-0-0---------------|


  S S S S S S E  H           S S S S Q    Q     Q        H        H         
--------------------------|---------------------------|--------------------|
--------------------------|---------------------------|--------------------|
--3-3-3-3-3---------------|--3-3-3-3-3----3----10S----|--1--------3--------|
--------------------------|---------------------------|--------------------|


  H        H           H        H           S S S S Q     S S S S E   S S  
--------------------|--------------------|--------------------------------|
--------------------|--------------------|------------------------3~------|
--5--------3--------|--1--------3--------|----------5~--------3-5-----3-5-|
--------------------|--------------------|--0-0---0-------0-0-------------|


  H        H           H        H           H        H         
--------------------|--------------------|--------------------|
--------------------|--------------------|--------------------|
--1--------3--------|--5--------3--------|--1--------6--------|
--------------------|--------------------|--------------------|


  S S S S Q     E  E  Q       H             E  E  E  Q    E  E  E   
---------------------------|-----------|---------------------------|
---------------------------|-----------|---------------------------|
----------5~---------------|-----------|---------------------------|
--0-0---0-------0--0-------|-----------|--5g6--5-----0----0--0--0--|


    E  E  E  E.  S E  S S E       E  E  E  Q    E  E  S S  
-----------------------------|----------------------------|
-----------------------------|----------------------------|
-----------------------------|----------------------------|
--5g6--5-----0---0-0--0-0-0--|--5g6--5-----0----0--0--0-5-|


  Q    E  Q.     Q         E  E  E  Q    E  E  E   
----------------------|---------------------------|
----------------------|---------------------------|
----------------------|---------------------------|
--7----7--6------9----|--5g6--5-----0----0--0--0--|


                  |-3-|                                      
    E  E  E  Q    S S S  Q          E  E  E  Q    E  E  S S  
-------------------------------|----------------------------|
-------------------------------|----------------------------|
-------------------------------|----------------------------|
--5g6--5-----0----0-0-0-12S----|--5g6--5-----0----0--0--0-0-|


  Q    E  Q     E  Q       E  E  E  E  E  E  E  E     E  E  E  E  E  E  E  E   
------------------------|--------------------------|--------------------------|
---------------/5-------|--------------------------|--------------------------|
--1----1--3--------7----|--------------------------|--3--3--3--3--3--3--3--3--|
------------------------|--0--0--0--0--0--0--0--0--|--------------------------|


  E  E  E  E  E  E  E  E     E  E  E  E   E   E   E   E   
--------------------------|------------------------------|
--------------------------|------------------------------|
--0--0--0--0--0--0--0--0--|------------------------------|
--------------------------|--0--0--0--0--12S--0--12S--0--|


  E  E  E  E  E  E  E  E     E  E  E  E  E  E  E  E   
--------------------------|--------------------------|
--------------------------|--------------------------|
--------------------------|--3--3--3--3--3--3--3--3--|
--0--0--0--0--0--0--0--0--|--------------------------|


  E  E  E  E  E  E  E  E     E  E  E  E  E  E  E  E     H        H         
--------------------------|--------------------------|--------------------|
--------------------------|--------------------------|--------------------|
--0--0--0--0--0--0--0--0--|--------------------------|--1--------3--------|
--------------------------|--0--0--0--0--0--0--0--0--|--------------------|


  H        H           H        H           S S S S Q     S S S S E   S S  
--------------------|--------------------|--------------------------------|
--------------------|--------------------|------------------------3~------|
--5--------3--------|--1--------3--------|----------5~--------3-5-----3-5-|
--------------------|--------------------|--0-0---0-------0-0-------------|


  H        H           H        H           H        H         
--------------------|--------------------|--------------------|
--------------------|--------------------|--------------------|
--1--------3--------|--5--------3--------|--1--------6--------|
--------------------|--------------------|--------------------|


  S S S S Q     S S S S E   S S    S S S E  S S S S S S  E   S  S  S  
--------------------------------|------------------------------------|
------------------------3~------|------------------------------------|
----------5~--------3-5-----3-5-|------------------------------------|
--0-0---0-------0-0-------------|--5-5-5-7--7-7-7-8-8-8-10--10-10-10-|


  E  E    Q    E  E  S  E.     S S S E  S S S S S S  E   S  S  S  
----------------------------|------------------------------------|
----------------------------|------------------------------------|
---------------------5S-8---|------------------------------------|
--0--0S--12----0--0---------|--5-5-5-7--7-7-7-8-8-8-10--10-10-10-|


   W                    E  S S E  S E.  S S E  S S  
---------------------|-----------------------------|
---------------------|-----------------------------|
---------------------|---------5----3---3-3-3--3-3-|
--12S----------------|--0--0-0----0----------------|


  E  S S E  S E.  S S E  S S    E  S S E  S E.  S S E  S S  
-----------------------------|-----------------------------|
-----------------------------|-----------------------------|
---------5----3---3-3-3--3-3-|--1--1-1-1--1-5---5-5-3--3-3-|
--0--0-0----0----------------|-----------------------------|


  E.  Q    S E.   Q     S    E  S S E  S E.  S S E  S S  
--------------------------|-----------------------------|
--------------------------|-----------------------------|
--------------------------|---------5----3---3-3-3--3-3-|
--5---7----L-8---10S----L-|--0--0-0----0----------------|


  E  S S E  S E.  S S E  S S    E  S S E  S S E  S S E  S S  
-----------------------------|------------------------------|
-----------------------------|--------------3-3--3----------|
---------5----3---3-3-3--3-3-|--1--1-1-1--1--------3-3--3-3-|
--0--0-0----0----------------|------------------------------|


  E.  Q    S E.  Q    S    W                   W                 
------------------------|-------------------|-------------------|
------------------------|-------------------|-------------------|
--0---1----L-2---4----L-|-------------------|-------------------|
------------------------|--0----------------|--L----------------|


   E   E   Q    H           E  E  E  E  Q    Q       S S S S S S E  H         
-------------------------|------------------------|--------------------------|
-------------------------|------------------------|--------------------------|
-------------------------|--0--0--0--0--1----3----|--------------------------|
--12--12S----------------|------------------------|--0-0-0-0-0---------------|


  S S S S S S E  H           S S S S S S E  H         
--------------------------|--------------------------|
--------------------------|--------------------------|
--------------------------|--3-3-3-3-3---------------|
--0-0-0-0-0---------------|--------------------------|


  S S S S S S E  H           S S S S S S E  H         
--------------------------|--------------------------|
--------------------------|--------------------------|
--3-3-3-3-3---------------|--------------------------|
--------------------------|--0-0-0-0-0---------------|


  S S S S S S E  H           S S S S S S E  H         
--------------------------|--------------------------|
--------------------------|--------------------------|
--------------------------|--3-3-3-3-3---------------|
--0-0-0-0-0---------------|--------------------------|


  S S S S Q    Q     Q        H        H           H        H         
---------------------------|--------------------|--------------------|
---------------------------|--------------------|--------------------|
--3-3-3-3-3----3----10S----|--1--------3--------|--5--------3--------|
---------------------------|--------------------|--------------------|


  H        H           S S S S Q     S S S S E   S S    H        H         
--------------------|--------------------------------|--------------------|
--------------------|------------------------3~------|--------------------|
--1--------3--------|----------5~--------3-5-----3-5-|--1--------3--------|
--------------------|--0-0---0-------0-0-------------|--------------------|


  H        H           H        H           H.           E  E   
--------------------|--------------------|---------------------|
--------------------|--------------------|---------------------|
--5--------3--------|--1--------6--------|---------------------|
--------------------|--------------------|--0------------L--5--|


  Q    E  Q.     Q       W                   W                  
----------------------|-------------------|-------------------||
----------------------|-------------------|-------------------||
----------------------|-------------------|-------------------||
--7----7--6------2----|--0----------------|--L----------------||




Duration Legend
---------------
W - whole
H - half
Q - quarter
E - 8th
S - 16th
T - 32nd
X - 64th
. - note dotted
|-n-|  - n-tuplets


Tablature Legend
----------------
L - tied note
x - dead note
g - grace note
(n) - ghost note
> - accentuded note
NH - natural harmonic
AH - artificial harmonic
TH - tapped harmonic
SH - semi harmonic
PH - pitch harmonic
h - hammer on
p - pull off
b - bend
br - bendRelease
pb - preBend
pbr - preBendRelease
brb - bendReleaseBend
\n/ - tremolo bar dip
\n - tremolo bar dive
-/n - tremolo bar Release up
/n\ - tremolo bar inverted dip
/n - tremolo bar return
-\n - tremolo bar Release down
S - shift slide
s - legato slide
/ -  slide into from below or out of upwards
\ -  slide into from above or out of downwards
~ - vibrato
W - wide vibrato
tr - trill
TP - tremolo picking
T - tapping
S - slap
P - pop
< - fade in
^ - brush up
v - brush down
Suggest correction
Give kudos to tab author, rate the tab!
1 2 3 4 5
comments
print report bad tab
guest
You may want to rate the tab now too:
select rating
Wanna post a correction for this tab? Suggest correction