Oops, an error
Loading. Please wait.

Silent Night Bodom Night Tab

version 1
version 1

Solo

Whole song

18,928 views 3 this week
1 commentread comment
1 2 3 4 5
x 5
add to favorites
launch autoscroll
font size
0
reset
how to read this tab
guitar tuner
backing track
0:00
0:00
×
Best way to learn
"Silent Night Bodom Night"
Autoscroll
slow
fast
+/-
esc
set tempo
stop
Author
Children of Bodom
Silent night, Bodom night
Hatebreeder
Tabbed Kevin Cruz

Tune all strings one step down
                            1.                        2.
D:-------------19----17---||-------------19-17------|----------------|
A:-17-19-20-17---20----19-||-17-19-20-17------20-19-|-20-19-17-16-17~|
F:------------------------||------------------------|----------------|
G:------------------------||------------------------|----------------|
C:------------------------||------------------------|----------------|
D:------------------------||------------------------|----------------|

                            1.                
D:-------------19----17---||-------------19-17------|-----------------------|
A:-17-19-20-17---20----19-||-17-19-20-17------20-19-|---20-19-20-17-20-15-17|
F:------------------------||------------------------|-17--------------------|
G:------------------------||------------------------|-----------------------|
C:------------------------||------------------------|-----------------------|
D:------------------------||------------------------|-----------------------|

D:-----------------------------------------17-19-20----------19-20-22-22b24-|
A:---------------------------------17-19-20----------19-20-22---------------|
F:-------------------------16-17-19-----------------------------------------|
G:-----------------16-17-19-------------------------------------------------|
C:---------12-14-15---------------------------------------------------------|
D:-12-14-15-----------------------------------------------------------------|

D:-r22--19-|-24-24p22s19--22-22-22p19s17--19-19-19p17s15--17-17-17p15s14-|
A:---------|-------------------------------------------------------------|
F:---------|-------------------------------------------------------------|
G:---------|-------------------------------------------------------------|
C:---------|-------------------------------------------------------------|
D:---------|-------------------------------------------------------------|
                                                    
|-15--15--15p14s12---14---14---14---12--|--------------------------------|
|---------------------------------------|-15--b(17)--r15-------------/17-|
|---------------------------------------|--------------------------------|
|---------------------------------------|--------------------------------|
|---------------------------------------|--------------------------------|
|---------------------------------------|--------------------------------|

|-19--17--15----------17--15-------|-17---15---------------------17-19-20-|
|-------------17--19----------17---|----------19---15---17-19-20----------|
|----------------------------------|--------------------------------------|
|----------------------------------|--------------------------------------|
|----------------------------------|--------------------------------------|
|----------------------------------|--------------------------------------|

                                                  drop w/bar
|-22--20--19----------20--19-------|--------------------------------------|
|-------------20--22----------20---|-22b(24)---------\/--\/---------------|
|----------------------------------|--------------------------------------|
|----------------------------------|--------------------------------------|
|----------------------------------|--------------------------------------|
|----------------------------------|--------------------------------------|


|-15-12-14-15-14-12-17-14-15-17-15-14-|-19-17-15-------------------17-19-20-|
|-------------------------------------|----------19-17-15/17-19-20----------|
|-------------------------------------|-------------------------------------|
|-------------------------------------|-------------------------------------|
|-------------------------------------|-------------------------------------|
|-------------------------------------|-------------------------------------|

|-22-19-20-22-20-19-24-20-22-24-22-20-|-24b(27)----------24b(27)------------|
|-------------------------------------|-------------------------------------|
|-------------------------------------|-------------------------------------|
|-------------------------------------|-------------------------------------|
|-------------------------------------|-------------------------------------|
|-------------------------------------|-------------------------------------|

|--------------------------|----------------------------|
|-17-----------------17----|-17------19------17h19p17---|
|--------------------------|----------------------------|
|--------------------------|----------------------------|
|--------------------------|----------------------------|
|--------------------------|----------------------------|

|---------------20--19--17------|-19--17----------17--------------|
|-16------------------------20--|---------20--19------20--19--17--|
|-------------------------------|---------------------------------|
|-------------------------------|---------------------------------|
|-------------------------------|---------------------------------|
|-------------------------------|---------------------------------|

|-------------------------------|----------------------------------|
|-\13-------------------13--15--|-17------15a(27)b(29)r(27)--------|
|-------------------------------|-----------------------------17---|
|-------------------------------|----------------------------------|
|-------------------------------|----------------------------------|
|-------------------------------|----------------------------------|

|----------------14---|-14b(15)-r14-------------|
|------15---17--------|---------------17---15---|
|-16------------------|-------------------------|
|---------------------|-------------------------|
|---------------------|-------------------------|
|---------------------|-------------------------|
Suggest correction
comments
print report bad tab
1 comment total.
0 reply
ushimir 52 May 18, 2007 11:34 AM

What "a" means an Artificial harmonic?

guest
You may want to rate the tab now too:
select rating
Wanna post a correction for this tab? Suggest correction