Oops, an error
Loading. Please wait.

Sixpounder Bass Tab

version 1
version 1

Whole song

Interactive

5,317 views 3 this week
no commentswrite comment
1 2 3 4 5
excellent!
x 3
add to favorites
launch autoscroll
font size
0
reset
guitar tuner
Tab Pro tools
  • play this tab
  • loop segment
  • change instrument
  • show fretboard
  • metronome
×
Best way to learn
"Sixpounder"
Autoscroll
slow
fast
+/-
esc
set tempo
stop
Contributor
Tuning
C G C F A D
Children of Bodom - Sixpounder

Tuning (C G C F)

Intro I 
F |------|    |----------------------------------------------------------------|   
C |------| x1 |----------------------------------------------------------------| x2 
G |------|    |------------------------------------------------------------3-2-|    
C |0-3-2-|    |0-7-5-3-0-3-2-0-0-0-0-0-0-0-0-0-0-7-5-3-0-3-2-0-0-0-2-3-0-0-----|    

Intro II 
F |----------------------------------------------------------------|
C |----------------------------------------------------------------|
G |---------------------------------------------------------7^^----|
C |2-2-22-22-2-22-22-2-22-22-2-22-22-2-22-22-2-22-22-2-22-22-------|
  |                                                                | x1
F |----------------------------------------------------------------|
C |----------------------------------------------------------------|
G |--------------------------------3*------------------------------|
C |--2-22-22-2-22-22-2-22-22-2-22-2--------------------------------|

Verse I 
F |----------------------------------------------------------------|
C |----------------------------------------------------------------| x2
G |5-----------------------------5---------------------0---1---3---|
C |00000000000000000-0-00-00-0-00--00000000000000000---------------|

Verse Bridge 
F |----------------------------------------------------------------|
C |----------------------------------------------------------------| x2
G |------------------------3333330-------------------------5-5-4---|
C |0-----0---0--0--0-----0---------0-----0---0--0--0-----0---------|

Verse I  x1

Verse II 
F |----------------------------------------------------------------|
C |----------------------------------------------------------------| x1
G |5-----------------------------5---------------------------------|
C |00000000000000000-0-00-00-0-00--00000000000000003---3-----------|

Chorus 
F |--------------------------------|    
C |--------------------------------| x1 
G |--------------------------------|    
C |0-7-5-3-0-3-2-0-0-0-0-0-0-0-0-0-|    
  |                                 
F |----------------------------------------------------------------|
C |----------------------------------------------------------------| x3
G |----------------------------3-2-1-------------------------------|
C |0-7-5-3-0-3-2-0-0-0-2-3-0-0---------------------8---------------|
  |                                                                |
F |----------------------------------------------------------------|
C |----------------------------------------------------------------| x1
G |-2--------------1-------------------------------5--5--5-"-------|
C |--------------------------------0-0-00-00-0-00-0----------------|

Guitar Solo I 
F |----------------------------------------------------------------|
C |----------------------------------------------------------------|
G |---------------------------------------------------------////7--|
C |2-2-22-22-2-22-22-2-22-22-2-22-22-2-22-22-2-22-22-2-22-22-------|
  |                                                                | x1
F |--------------------------------------------------------|       |
C |--------------------------------------------------------|_______|
G |--------------------------------------------------------|
C |--2-22-22-2-22-22-2-22-22-2-22-22---4---5---7---7-------|

Verse I  x2
Verse Bridge  x2

Guitar Solo II 
F |----------------------------------------------------------------|
C |----------------11111111------------------------55555555--------|
G |3333333333333333--------111111113333333333333333--------55555555|
C |----------------------------------------------------------------|
  |                                                                |
F |----------------------------------------------------------------|
C |----------------22222222------------------------66666666--------|
G |4444444444444444--------222222224444444444444444--------66666666|
C |----------------------------------------------------------------|
  |                                                                | x1
F |----------------------------------------------------------------|
C |----------------33333333------------------------33333333--------|
G |5555555500000000--------333333335555555500000000--------33333333|
C |----------------------------------------------------------------|
  |                                                                |
F |----------------------------------------------------------------|
C |----------------------------------------------------------------|
G |*-----------------------------3---------------------------------|
C |----------------0-0-00-00-0-00--0*--------------0---2---3---5---|

Verse I  x1
Verse Bridge x1

End Chorus 
F |--------------------------------|    
C |--------------------------------| x1 
G |--------------------------------|    
C |0-7-5-3-0-3-2-0-0-0-0-0-0-0-0-0-|    
  |
F |----------------------------------------------------------------|
C |----------------------------------------------------------------| x3
G |----------------------------3-2-1-------------------------------|
C |0-7-5-3-0-3-2-0-0-0-2-3-0-0---------------------8---------------|
  |
F |-------------------------------------------------------------------------------|
C |-------------------------------------------------------------------------------| x1
G |2-----------1------------------------------------------------------------------|
C |-------------------/-8-\-0-7-5-3-0-3-2-0-0-0-0-0-0-0-0-0-0-7-5-3-0-3-2-5--5--5-"-|
comments
We did not receive enough feedback on this tab! Please rate:
print report bad tab
1 2 3 4 5
I want to post or [tab]
guest
You may want to rate the tab now too:
select rating
Please do not post tabs as comments. Select "correction" instead!