Oops, an error
Loading. Please wait.

Sixpounder Bass Tab

version 2
version 2

Whole song

Interactive

1,133 views 1 this week
2 commentsread comments
1 2 3 4 5
please rate
add to favorites
launch autoscroll
font size
0
reset
guitar tuner
Autoscroll
slow
fast
+/-
esc
set tempo
stop
Help us to improve Ultimate-Guitar.com Take our survey!
×
Author
Song: Sixpounder
Band: Children of Bodom
Album: Hate Crew Deathroll
Tuning: CGCF
Tabbed by: bassbizzle

Intro
	  2x
|------|-----------------------------------------------------------------|
|------|-----------------------------------------------------------------|
|------|-------------------------------------------------------------3-2-|
|-0/5-|-0-6-5-3-0-5-3-2-0-0-0-0-0-0-0-0-0-6-5-3-0-5-3-2-0-0-2-3-0-0-----|
					    7x			7x
|--------------------------------|---------|---------|---------|----|
|--------------------------------|---------|---------|---------|----|
|--------------------------------|---------|---------|---------|----|
|-0-0-00-00-0-00-00-0-00-2-2-22-|-22-2-22-|-2-2-22-|-22-2-22-|-10-|(ten)

Verse 1
 2x
|---------------------------------------------------|
|---------------------------------------------------|
|---------------------------------------------------|
|-0-0-00-00-0-00-00-0-00-6-0-00-00-0-00-00-0-7-8-10-|
 2x
|------------------------------------------------------|
|------------------------------------------------------|
|------------------------------------------------------|
|-0---0-0-0-0---0-10101010-7777-0---0-0-0-0---0-0-0-11-|
 2x but the second time end with 2-2 instead of 7-8-10- you’ll here it if you listen 
|---------------------------------------------------|
|---------------------------------------------------|
|---------------------------------------------------|
|-0-0-00-00-0-00-00-0-00-6-0-00-00-0-00-00-0-7-8-10-|

Chorus 1
|-----------------------------------------------------------------|
|-----------------------------------------------------------------|
|-------------------------------------------------------------3-2-|
|-0-6-5-3-0-5-3-2-0-0-0-0-0-0-0-0-0-6-5-3-0-5-3-2-0-0-2-3-0-0-----|
 2x
|---------------------------------------|
|---------------------------------------|
|-----------------------------------3-2-|
|-8-10--0-6-5-3-0-5-3-2-0-0-2-3-0-0-----|

|--------------------------------|
|--------------------------------|
|--------------------------------|
|-8-10-9-8--0-0-00-00-0-00-0-0-0-|

Solo
|---------------------------------------------------------------|
|---------------------------------------------------------------|
|---------------------------------------------------------------|
|-2-2-22-22-2-22-22-2-22-/14-2-2-22-22-2-22-22-2-22-24-45-57-76-|

Verse 2
2x
|---------------------------------------------------|
|---------------------------------------------------|
|---------------------------------------------------|
|-0-0-00-00-0-00-00-0-00-6-0-00-00-0-00-00-0-7-8-10-|
 2x
|------------------------------------------------------|
|------------------------------------------------------|
|------------------------------------------------------|
|-0---0-0-0-0---0-10101010-7777-0---0-0-0-0---0-0-0-11-|


Solo
|-------------------------------------------------------------------|
|-------------------------------------------------------------------|
|-------------------------------------------------10101010----------|
|-1010101010101010-13131313-8888-1010101010101010----------12121212-|

|-------------------------------------------------------------------|
|-------------------------------------------------------------------|
|-------------------------------------------------11111111----------|
|-1111111111111111-14141414-9999-1111111111111111----------13131313-|

|-------------------------------------------------------------------------|
|-------------------------------------------------------------------------|
|----------13131313----------------------------13131313----------15151515-|
|-12121212----------15151515-10101010-12121212----------15151515----------|

Bridge
|----------------------------------------------|
|----------------------------------------------|
|----------------------------------------------|
|-12---0-0-00-00-0-00-12-0-00-2-22-4-44-5-55-0-|

Verse 3
 2x but second time play 2-2 again
|---------------------------------------------------|
|---------------------------------------------------|
|---------------------------------------------------|
|-0-0-00-00-0-00-00-0-00-6-0-00-00-0-00-00-0-7-8-10-|

Chorus 2
|-----------------------------------------------------------------|
|-----------------------------------------------------------------|
|-------------------------------------------------------------3-2-|
|-0-6-5-3-0-5-3-2-0-0-0-0-0-0-0-0-0-6-5-3-0-5-3-2-0-0-2-3-0-0-----|
 2x
|---------------------------------------|
|---------------------------------------|
|-----------------------------------3-2-|
|-8-10--0-6-5-3-0-5-3-2-0-0-2-3-0-0-----|

|-----------------------------------------------------------------|
|-----------------------------------------------------------------|
|-----------------------------------------------------------------|
|-8-10-9-8-0-6-5-3-0-5-3-2-0-0-0-0-0-0-0-0-0-6-5-3-0-5-3-2-0-0-0-|

Suggest correction
Give kudos to tab author, rate the tab!
1 2 3 4 5
comments
print report bad tab
2 comments total.
0 reply
Hammerzeit 355 wrote on December 11 2007, 04:33 pm

Dude the Verse is:

Verse 1

2x
|---------------------------------------------------------|
|------------------------------------------------------
---|
|-5---6-5----3-5------------------5---6-5---3-5--5^-8^-12^-|
|--000----000----00-0-00-00-0-00---000---000----00--
-------|

0 reply
bassiscool44 42 wrote on January 3 2010, 07:06 pm

this is really good.
with the other comment as a correction its perfect =]

guest
You may want to rate the tab now too:
select rating
Wanna post a correction for this tab? Suggest correction