Oops, an error
Loading. Please wait.

Sixpounder Bass Tab

version 3
version 3

Whole song

Interactive

1,218 views 1 this week
no commentswrite comment
1 2 3 4 5
excellent!
x 1
add to favorites
launch autoscroll
font size
0
reset
guitar tuner
Tab Pro tools
  • play this tab
  • loop segment
  • change instrument
  • show fretboard
  • metronome
Autoscroll
slow
fast
+/-
esc
set tempo
stop
Contributor
Difficulty
Tuning
intermediate
C G C F A D
Sixpounder tabbed By Hammerzeit
Its in drop C, its one of the 2 songs off Hate Crew Death Roll in that tuning.

Tuning: Dropped C (CGCF low to high)
Anyways, it breaks the Bodom Mould a bit and has a really good riff.

Intro 0:01 x 2
F|-------------------------------------------------------------------|
C|-------------------------------------------------------------------|
G|-------------------------------------------------------------------|
C|--0-6-5-3-0-3-2-1-0-0-0-0-0-0-0-0-0-6-5-3-0-3-2-1-0-0-2-3-0-0-10-9-|

Fill
F|------------------------------|
C|------------------------------|
G|------------------------------|
C|---0--------------------------|


Chugging Riff x1 (no slide second time)
F|-------------------------------------------------------------------|
C|-------------------------------------------------------------------|
G|-------------------------------------------------------------------|
C|--222--22--222-22--222-22--222-22--222-22-222-22-222-22-222-22-14/-|

cont'd
F|------------------------------------------|
C|------------------------------------------|
G|------------------------------------------|
C|--22-22-222-22-222-22-222-22-2-14/--------|

Verse Riff x 2
F|-------------------------------------------------------------------|
C|-------------------------------------------------------------------|
G|--5-----6-5-----3-5-------------5-----6-5-----3-5-xx-5-8-12--------|
C|----000-----000-----0-00-000-00---000-----000----------------------|

Bridge (its 10's not 1-0)x2
F|-------------------------------------------------------------------|
C|-------------------------------------------------------------------|
G|-------------------------------------------------------------------|
C|--0--0---1-1--0--0-10101010-7777--0---0----1-1--0--000000-10-------|


Verse Riff x 1
F|-------------------------------------------------------------------|
C|-------------------------------------------------------------------|
G|--5-----6-5-----3-5-------------5-----6-5-----3-5-xx-5-8-12--------|
C|----000-----000-----0-00-000-00---000-----000----------------------|

second time x 1
F|-----------------------------------------------------------------|
C|-----------------------------------------------------------------|
G|--5-----6-5-----3-5-------------5-----6-5-----3-5----------------|
C|----000-----000-----0-00-000-00---000-----000-----2-2------------|

Chorus:
First Riff x 1
F|-------------------------------------------------------------------|
C|-------------------------------------------------------------------|
G|-------------------------------------------------------------------|
C|--0-6-5-3-0-3-2-1-0-0-0-0-0-0-0-0-0-6-5-3-0-3-2-1-0-0-2-3-0-0-10-9-|

Then: X2
F|-------------------------------------------------------------------|
C|-------------------------------------------------------------------|
G|-------------------------------------------------------------------|
C|--8~--10~-0-6-5-3-0-3-2-1-0-0-2-3-0-0-10-9-------------------------|

To finish the chorus
F|-------------------------------------------------------------------|
C|-------------------------------------------------------------------|
G|-------------------------------------------------------------------|
C|--8~-10~-9~-8~-7~-00-00-000-00-0-1-1-1-----------------------------|

Solo Backing x1 (no slide second time)
F|-------------------------------------------------------------------|
C|-------------------------------------------------------------------|
G|-------------------------------------------------------------------|
C|--222--22--222-22--222-22--222-22--222-22-222-22-222-22-222-22-14/-|

cont'd
F|--------------------------------------------------------|
C|--------------------------------------------------------|
G|--------------------------------------------------------|
C|--22-22-222-22-222-22-222-22-2-22-5-55-8-88-10-1010-14/-|

Verse 2

F|-------------------------------------------------------------------|
C|-------------------------------------------------------------------|
G|--5-----6-5-----3-5-------------5-----6-5-----3-5-xx-5-8-12--------|
C|----000-----000-----0-00-000-00---000-----000----------------------|

F|-------------------------------------------------------------------|
C|-------------------------------------------------------------------|
G|--5-----6-5-----3-5-------------5-----6-5-----3--5-7-8-10----------|
C|----000-----000-----0-00-000-00---000-----000----------------------|

Bridge (its 10's not 1-0)x2
F|-------------------------------------------------------------------|
C|-------------------------------------------------------------------|
G|-------------------------------------------------------------------|
C|--0--0---1-1--0--0-10101010-7777--0---0----1-1--0--000000-10-------|

LOAD THE SIXPOUNDER!!!!

Solo backage. This is easy, Watch you 6 stringer melt faces.
F|-----------------------------------------------------------------------|
C|-------1-----------3------------1----------2---------------------------|
G|---3~-----1----3~-----3---4--2----2--4--2----2--3-1-1-1-3-1------------|
C|-------------------------------------------------------------6--1--3~--|
(all minims except the ones with a sustain by it. Listen to the song!!)

After the solo: Short break then

F|------------------------------------------------------------------------------|
C|------------------------------------------------------------------------------|
G|--------------------------5-7-8-10--------------------------------------------|
C|--0-0-00-0-0-0-00-------------------------------------------------------------|

3rd Verse
Verse Riff x 1
F|-------------------------------------------------------------------|
C|-------------------------------------------------------------------|
G|--5-----6-5-----3-5-------------5-----6-5-----3-5-xx-5-8-12--------|
C|----000-----000-----0-00-000-00---000-----000----------------------|

second time x 1
F|-----------------------------------------------------------------|
C|-----------------------------------------------------------------|
G|--5-----6-5-----3-5-------------5-----6-5-----3-5----------------|
C|----000-----000-----0-00-000-00---000-----000-----2-2------------|

Chorus:
First Riff x 1
F|-------------------------------------------------------------------|
C|-------------------------------------------------------------------|
G|-------------------------------------------------------------------|
C|--0-6-5-3-0-3-2-1-0-0-0-0-0-0-0-0-0-6-5-3-0-3-2-1-0-0-2-3-0-0-10-9-|

Then: X2
F|-------------------------------------------------------------------|
C|-------------------------------------------------------------------|
G|-------------------------------------------------------------------|
C|--8~--10~-0-6-5-3-0-3-2-1-0-0-2-3-0-0-10-9-------------------------|

To finish the chorus
F|----------------------------|
C|----------------------------|
G|----------------------------|
C|--8~-10~-9~-8~-7~-----------|

Slight alteration/ outro
F|-------------------------------------------------------------------|
C|-------------------------------------------------------------------|
G|-------------------------------------------------------------------|
C|--0-6-5-3-0-3-2-1-0-0-0-0-0-0-0-0-0-6-5-3-0-3-2-1---0-0-0----------|

Fun to play, pretty sick tune. Big up COBHC!
comments
We did not receive enough feedback on this tab! Please rate:
print report bad tab
1 2 3 4 5
I want to post or [tab]
guest
You may want to rate the tab now too:
select rating
Please do not post tabs as comments. Select "correction" instead!