Oops, an error
Loading. Please wait.

Tie My Rope Tab

version 2
version 2

Whole song

Interactive

17,471 views 3 this week
5 commentsread comments
1 2 3 4 5
accurate
x 8
add to favorites
launch autoscroll
font size
0
reset
how to read this tab
guitar tuner
Tab Pro tools
  • play this tab
  • loop segment
  • change instrument
  • show fretboard
  • metronome
×
Best way to learn
"Tie My Rope"
Autoscroll
slow
fast
+/-
esc
set tempo
stop
Contributor
Difficulty
Tuning
advanced
B F# B E G# C#
Here's my version of Tie My Rope from Children of Bodom:

Intro(Keyboard) x7 then guitar goes on
D|---------------------------------|---------------------------------------|
A|---------------------------------|---------------------------------------|
F|---------------------------------|---------------------------------------|
C|---------------------------------|---------------------------------------|
G|---------------------------------|---------------------------------------|
C|-0-2-3-2---0-2---5-3---2---3-2---|-0-2-3-2---0-2---5-3---2---3-2---------|

Guitar 1
D|--------------------------------------|
A|--------------------------------------|
F|--------------------------------------|
C|--4444---555-777----------------------|
G|--2222---333-555----------------------|
C|--------------------------------------|
Guitar 2
D|--------------------------------------|
A|--------------------------------------|
F|--------------------------------------|
C|---------555-777----------------------|
G|---------333-555----------------------|
C|--000<6>------------------------------|
 pm|---|


Rest of the intro... Both guitar (x2)
D|-----------------------------|-------------------------------------------|
A|-----------------------------|-------------------------------------------|
F|-----------------------------|-------------------------------------------|
C|-----------------------------|---------------7-7-7--9--------------------|
G|0-2-3-2--0-2-3-5-3--0-2-3-2--|-0-2-3-2--0-2--5-5-5--7--------------------|
C|0-2-3-2--0-2-3-5-3--0-2-3-2--|-0-2-3-2--0-2------------------------------|

                                First Box (Both guitar)
D|-----------------------------|-------------------------------------------|
A|-----------------------------|-------------------------------------------|
F|-----------------------------|-------------------------------------------|
C|-----------------------------|---------------4-4-4--5--------------------|
G|0-2-3-2--0-2-3-5-3--0-2-3-2--|-0-2-3-2--0-2--2-2-2--3--------------------|
C|0-2-3-2--0-2-3-5-3--0-2-3-2--|-0-2-3-2--0-2------------------------------|
                                Second Box (Guitar 1 and 2)
                               |-------------------------------------------|
                               |-------------------------------------------|
                               |-------------------------------------------|
                               |--4444---555-777---------------------------|
                               |--2222---333-555---------------------------|
                               |-------------------------------------------|

                               |-------------------------------------------|
                               |-------------------------------------------|
                               |-------------------------------------------|
                               |---------555-777---------------------------|
                               |---------333-555---------------------------|
                               |---000<6>----------------------------------|
                                pm|---|


Verse (x3) Both guitar
D|-------------------------------------------------------------------------|
A|-------------------------------------------------------------------------|
F|-------------------------------------------------------------------------|
C|----------------------------------------8------1-------------------------|
G|-000-3-36---000-3-35--000-5-35--000000--6--or--1--if you prefer...-------|
C|-000-3-36---000-3-35--000-------000000---------1-------------------------|

D|-------------------------------------------------------------------------|
A|-------------------------------------------------------------------------|
F|-------------------------------------------------------------------------|
C|---------------------------------1010-77-1212-99-------------------------|
G|-000-3-36---000-3-35--000-5-35-------------------------------------------|
C|-000-3-36---000-3-35--000------------------------------------------------|


Rest of the Verse that looks like a chorus... (x2)
D|-------------------------------------------------------------------------|
A|-------------------------------------------------------------------------|
F|-------------------------------------------------------------------------|
C|-------------------------------------------------------------------------|
G|-0-2-2-2-3202---0-0-5--0-0-2-2-0-0-5--0----------------------------------|
C|-0-2-2-2-3202---0-0-5--0-0-2-2-0-0-5--0----------------------------------|
PM|-------|      |---|  |-----------|

D|-------------------------------------------------------------------------|
A|-------------------------------------------------------------------------|
F|-----------------------------9-------4-------5---------------------------|
C|-------------------------0-0-9---0-0-4---0-0-5---------------------------|
G|-0-2-2-2-3202---0-0------------------------------------------------------|
C|-0-2-2-2-3202---0-0-<5>--------------------------------------------------|
PM|-------|      |---|    |---|   |---|   |---|


Interlude Both guitar
D|--------------------------------------
A|--------------------------------------|
F|--6-6----6--4---6-4-6--------2--------|
C|--6-6----6--4---6-4-6--------2--------|
G|--4-4----4--2---4-2-4--4444--0--------|
C|--------------------------------------|

D|--------------------------------------|
A|--------------------------------------|
F|----------9--7------------------------|
C|--2-2-----9--7---2-0-2--22220-5-------|
G|--2-2-----7--5---2-0-2--22220-5-------|
C|--2-2--22--------2-0-2--22220-5-------|
      PM|--|             |-----|

Chorus (x3)
D|---15b17r15-13--12----------------------------------------------|
A|15-----------------15-13-18181818151518182020202015152020-------|
F|---------------(18-18-18-18-15-15-18-18-20-20-20-20-15-15-20-20)|
C|----------------------------------------------------------------|
G|----------------------------------------------------------------|
C|----------------------------------------------------------------|

D|---15b17r15-13--12--------------1717----------------------------|
A|15----------------15-13-15151515----1515-182022201817151315-----|
F|------------------------------------(18-20-22-20-18-17-15-13-15)|
C|----------------------------------------------------------------|
G|----------------------------------------------------------------|
C|----------------------------------------------------------------|
The tird time he plays
D|---15b17r15-13--12----------17b18r17-15--13-12------------------|
A|15-----------------15-13-15--------------------13---------------|
F|----------------------------------------------------------------|
C|----------------------------------------------------------------|
G|----------------------------------------------------------------|
C|----------------------------------------------------------------|
Please note that the number in the () are written so you can read them easier.


That's it from now. I don't know the solo yet and I don't think I'll be able to play it anyway...

comments
print report bad tab
5 comments total. Showing first comments.
+4 reply
shelovemyguitar wrote on May 21 2008, 05:04 pm

Hey I just saw that I wrote ''drop B'' but it is drop c... Anyway I hope you liked it!

P.S. Cedric est fif

+1 reply
XSider wrote on June 17 2008, 06:35 am

Good job! 5 stars.

+1 reply
J-E-N-O-V-A wrote on August 9 2008, 01:48 pm

lol I was just about to say that Bodom f"cking don't play drop B, but I just saw your comment ;)

I want to post or [tab]
guest
You may want to rate the tab now too:
select rating
Please do not post tabs as comments. Select "correction" instead!