Oops, an error
Loading. Please wait.

Transference Tab

version 1
version 1

Solo

Whole song

Interactive

1,903 views 3 this week
1 commentread comment
1 2 3 4 5
1 last vote to show rating
add to favorites
launch autoscroll
font size
0
reset
how to read this tab
guitar tuner
Autoscroll
slow
fast
+/-
esc
set tempo
stop
Help us to improve Ultimate-Guitar.com Take our survey!
×
Author
Tuning
Tabbers playing skills
D G C F A D
advanced +
Children of Bodom - Transference
Tabbed by Lorcan Ward
Guitar Solo is at 3:05
D Standard or Drop C tuning will both work since the 6th string isn't used

Check out my cover video:
http://www.youtube.com/watch?v=8bUqXPOe55A

|-------------------------------------------------------------------------|
|--12-11-------12-11------12-11------14p11------12-11-------14p11---------|
|--------13-11-------13-11------13-11------13-11------13-11-------13-11---|
|-------------------------------------------------------------------------|
|-------------------------------------------------------------------------|
|-------------------------------------------------------------------------|

|--14p11-------16p11--------14-11-13-14/16-13-14-16/18-14-16-18/19-16-18-19/21--|
|--------12p11-------12p11------------------------------------------------------|
|-------------------------------------------------------------------------------|
|-------------------------------------------------------------------------------|
|-------------------------------------------------------------------------------|
|-------------------------------------------------------------------------------|

|--18-19-21/22-19-21--21b23-t24p(23)rb21p19--------------------------------|
|--------------------------------------------21p19--21b23-t22p(23)r21p19---|
|--------------------------------------------------------------------------|
|--------------------------------------------------------------------------|
|--------------------------------------------------------------------------|
|--------------------------------------------------------------------------|

|------------16------16--16---------------------16---------------------|
|------------19b21-----------19--16---------16------19--16-------------|
|--20~~~-----------------------------18b19------------------19---------|
|----------------------------------------------------------------------|
|----------------------------------------------------------------------|
|----------------------------------------------------------------------|

|----------------------------------------------------------------------|
|--18--16----------16--------------------------------------------------|
|----------19--18------19--18--16--19--18--16--------------------------|
|----------------------------------------------18--16------------------|
|------------------------------------------------------18--17----------|
|----------------------------------------------------------------------|

|------------------------------------------16--21--19--16--------------|
|----------------------------------16--19------------------19--16------|
|--------------------------16--18--------------------------------------|
|--------------16--17--18----------------------------------------------|
|--16--17--18----------------------------------------------------------|
|----------------------------------------------------------------------|

|--19--18--16--19/23--19----------22b23~~~~~~--------------------------|
|-------------------------21--19---------------------------------------|
|----------------------------------------------------------------------|
|----------------------------------------------------------------------|
|----------------------------------------------------------------------|
|----------------------------------------------------------------------|


E Standard Tuning
|----------------------------------------------------------------------|
|--10-9------10-9------10-9------12p9------10-9-------12p9-------------|
|-------11-9------11-9------11-9------11-9------11-9-------11p9--------|
|----------------------------------------------------------------------|
|----------------------------------------------------------------------|
|----------------------------------------------------------------------|

|--12p9------14p9-------12-9-11-12/14-11-12-14/16-12-14-16/17-14-16-17/19--|
|-------10p9------10p9-----------------------------------------------------|
|--------------------------------------------------------------------------|
|--------------------------------------------------------------------------|
|--------------------------------------------------------------------------|
|--------------------------------------------------------------------------|

|--16-17-19/21-17-19--19b21-t22p(21)rb19p17--------------------------------|
|--------------------------------------------19p17--19b21-t20p(21)r19p17---|
|--------------------------------------------------------------------------|
|--------------------------------------------------------------------------|
|--------------------------------------------------------------------------|
|--------------------------------------------------------------------------|

|------------14------14--14---------------------14---------------------|
|------------17b19-----------17--14---------14------17--14-------------|
|--18~~~-----------------------------16b17------------------17---------|
|----------------------------------------------------------------------|
|----------------------------------------------------------------------|
|----------------------------------------------------------------------|

|----------------------------------------------------------------------|
|--16--14----------14--------------------------------------------------|
|----------17--16------17--16--14--17--16--14--------------------------|
|----------------------------------------------16--14------------------|
|------------------------------------------------------16--15----------|
|----------------------------------------------------------------------|

|------------------------------------------14--19--17--14--------------|
|----------------------------------14--17------------------17--14------|
|--------------------------14--16--------------------------------------|
|--------------14--15--16----------------------------------------------|
|--14--15--16----------------------------------------------------------|
|----------------------------------------------------------------------|

|--17--16--14--17/21--17----------20b21~~~~~~--------------------------|
|-------------------------19--17---------------------------------------|
|----------------------------------------------------------------------|
|----------------------------------------------------------------------|
|----------------------------------------------------------------------|
|----------------------------------------------------------------------|
Suggest correction
Give kudos to tab author, rate the tab!
1 2 3 4 5
comments
print report bad tab
1 comment total.
0 reply
KyleLuc 10 Jun 09, 2013 03:37 PM

thanks dude been having to patch different tabs for this song thanks for making solo ease :)

guest
You may want to rate the tab now too:
select rating
Wanna post a correction for this tab? Suggest correction