Oops, an error
Loading. Please wait.

Triple Corpse Hammerblow Tab

version 2
version 2

Whole song

Interactive

6,730 views 9 this week
5 commentsread comments
1 2 3 4 5
x 4
add to favorites
launch autoscroll
font size
0
reset
how to read this tab
guitar tuner
Autoscroll
slow
fast
+/-
esc
set tempo
stop
Help us to improve Ultimate-Guitar.com Take our survey!
×
Triple Corpse Hammerblow - Children of Bodom
Tabbed by Matt Courtemanche shortsleeves@hotmail.com
DGCFAD
Size 8 Courier New
Riff 1
|Alexi
|-----------------|----------------------------------------------------------------------|
|--15---10---12---|-15---14---12----\/\/\/\/\/\/\/\/\/\/\/--\/\/\/\/\/\/\/\/\/\/---------|
|o-17b--12b--14b-o|-17b--16b--14b-(14b)-------------------(14b)--------------------------|
|o---------------o|-----------------------------------------ah---------------------------|
|-----------------|----------------------------------------------------------------------|
|-----------------|----------------------------------------------------------------------|
|Ale              |                                                                      |
|-----------------|----------------------------------------------------------------------|
|-----------------|----------------------------------------------------------------------|
|o-7-------------o|-7--------------------------------------------------------------------|
|o-7----7----9---o|-7----7----9----------------------------------------------------9-----|
|--5----7----9----|-5----7----9---9--9--9--9--9--9--9--9--9--9--9--9--9--9--9--9---9-----|
|-------5----7----|------5----7---7--7--7--7--7--7--7--7--7--7--7--7--7--7--7--7---7-----|

Riff 2
|-----------------1010-------------|-----------------1212-------------|
|-12----------1212----12121212-----|-12----------1212----12121212-----|
|-----11111414----------------1414-|-----11111414----------------1414-|
|----------------------------------|----------------------------------|
|----------------------------------|----------------------------------|
|----------------------------------|----------------------------------|
|                                  |                                  |
|----------------------------------|----------------------------------|
|----------------------------------|----------------------------------|
|----------------------------------|---------------o/-----------------|
|-9-----------9-----------9--------|---------------/o-----------------|
|-9-----------9-----------9--------|----------------------------------|
|-7---7-7-7-7-7---7-7-7-7-7---7-7--|----------------------------------|

|-------------------------10p0-0-0-|-9p0-0-0-7p0-0-0-5p0-0-0/9-9\-----|
|-12121212----101012121212---------|----------------------------------|
|---------1111---------------------|----------------------------------|
|----------------------------------|----------------------------------|
|----------------------------------|----------------------------------|
|----------------------------------|----------------------------------|
|                                  |                                  |
|----------------------------------|----------------------------------|
|----------------------------------|----------------------------------|
|----------------------------------|----------------------------------|
|-12--------------2----------------|-7---------------------------10---|
|-12--------------2----------------|-7---------------------------10---|
|-10--------------0----------------|-5---------------------------8----|

Riff 3
|-------------------|------------------------|
|-------------------|------------------------|
|o-----------------o|-9--7--9--11-12-11-9--7-|
|o-6---4---6-----7-o|-9--7--9--11-12-11-9--7-|
|--4-442-224-44445--|-7--5--7--9--10-9--7--5-|
|-------------------|------------------------|
|                   |
|-------------------|------------------------|
|-------------------|------------------------|
|o-----------------o|-9--8--9--11-13-11-9--8-|
|o-6---4---6-----7-o|-11-9--11-13-14-13-11-9-|
|--4-442-224-44445--|------------------------|
|-------------------|------------------------|

Riff 4
|------------------------------|--------------------------|
|------------------------------|--------------------------|
|------------------------------|--------------------------|
|---------3----------5------6--|---------5--6----------5--|
|-0-0-0-0-1--0-0-0-0-3--0-0-4--|-0-0-0-0-3--4--0-0-0-0-3--|
|------------------------------|--------------------------|
Play: 	Riff 2
	Riff 3

Riff 5                       __________________________  _____________________________
                             |1.                         |2.
|----------------------------|---------------------------|-----------------------------|
|----------------------------|---------------------------|-----------------------------|
|----------------------------|---------------------------|-----------------------------|
|----------8---------9-----8-|---------9-11--------------|---------4-4-4-4-55-66-77-88-|
|-6-6-6-6----6-6-6-6---6-6---|-9-9-9-9--------------9-11-|-2-2-2-2---------------------|
|----------------------------|--------------9-9-9-9------|-----------------------------|
|                            |                           |
|----------------------------|---------------------------|-----------------------------|
|----------------------------|---------------------------|-----------------------------|
|----------------------------|---------------------------|-----------------------------|
|----------8---------9-----8-|---------9-11---------8-11-|---------4-4-4-4-55-66-77-88-|
|-6-6-6-6----6-6-6-6---6-6---|-9-9-9-9------8-8-8-8------|-2-2-2-2---------------------|
|----------------------------|---------------------------|-----------------------------|

Riff 6
|--------------------------|--------------------------|--------------------------|
|--------------------------|--------------------------|--------------------------|
|o-------------------------|-------------------------o|--------------------------|
|o2--2--2-2-2--2--2--2-2-2-|-------------------------o|-5--5--5-5-5--4--4--4-4-4-|
|-2--2--2-2-2--2--2--2-2-2-|--------------------------|-3--3--3-3-3--5--5--5-5-5-|
|-0--0--0-0-0--0--0--0-0-0-|--------------------------|--------------------------|
|                          |                          |                          |
|--------------------------|--------------------------|--------------------------|
|--------------------------|--------------------------|--------------------------|
|o-------------------------|-------------------------o|--------------------------|
|o-------------------------|-------------------------o|--------------------------|
|--------------------------|--------------------------|-7--7--7-7-7--9--9--9-9-9-|
|--------------------------|--------------------------|-8--8--8-8-8--10-10-101010|

Riff 7
|-------------------------|-------------------------------------------------|
|-------------------------|-------------------------------------------------|
|o-----------------------o|o-----------------------------------------------o|
|o2-----3-----5-----6----o|o-----------------------------------------------o|
|-2-----3-----5-----6-----|-------------------------------------------------|
|-0-----1-----3-----4-----|-0-0-0-0-0-0-1-1-1-1-1-1-3-3-3-3-3-3-4-4-4-4-4-4-|

Solo 1
|--------8-12-10-8-----------------------|--------------------------------------|
|------10----------12-10-8-10-12-10-8----|--------------------------------------|
|-----9-------------------------------10-|-9----------9-------------------------|
|---10-----------------------------------|---12-10-12---12-10--9--10--7--9--5---|
|-12-------------------------------------|--------------------------------------|
|----------------------------------------|--------------------------------------|
|                                        |                                      |
|----------------------------------------|--------------------------------------|
|----------------------------------------|--------------------------------------|
|----------------------------------------|--------------------------------------|
|----------------------------------------|------------------------10-----9------|
|-------------------------7------------7-|------------------------10-----9------|
|-5--5--5--5--5--5--5--5--5--5-5-5-5---5-|-5--5--5--5--5--5--5--5-8------7------|

|---------5-9-7-5-----------------|-----------------------------|
|-------7---------9-7-5-7-9-7-5---|-----------------------------|
|-----6-------------------------7-|-6-------6-------------------|
|---7-----------------------------|---9-7-9---9-7-6--7--4--6--2-|
|-9-------------------------------|-----------------------------|
|---------------------------------|-----------------------------|
|                                 |                             |
|---------------------------------|-----------------------------|
|---------------------------------|-----------------------------|
|---------------------------------|-----------------------------|
|---------------------------------|------------------7-----6----|
|------------------4----------4---|------------------7-----6----|
|-2-2-2-2-2-2-2-2--2-2-2-2-2--2---|-2-2-2-2-2-2-2-2--5-----4----|

Riff 8
|----|----|---------|-------------|-----------|-----------------|
|----|----|---------|-------------|-----------|-----------------|
|-6~-|----|---------|-------------|-----------|o---------------o|
|-ah-|----|---------|-------------|-----------|o---------------o|
|----|----|---------|-------------|-----------|-----------------|
|----|----|---------|-------------|-----------|-----------------|
|    |    |         |             |           |                 |
|----|----|---------|-------------|-----------|-----------------|
|----|----|---------|-------------|-----------|-----------------|
|----|----|-11-11\--|--7--9-------|--7--4--6--|o6-6-6-6-6-6-6-6o|
|-4--|----|-11-11\--|--7--9--4----|--7--4--6--|o6-6-6-6-6-6-6-6o|
|-4--|----|-9--9-\--|--5--7--4----|--5--2--4--|-4-4-4-4-4-4-4-4-|
|-2--|----|---------|--------2----|-----------|-----------------|

Play:	Riff 2
	Riff 3

Solo 2	
                            _  /                            _     / \/\   
                             |/                               \ /      \/\
|--------------------------|-----|--------------------------|-------------|
|--------------------------|-----|--------------------------|-------------|
|--------------------------|-7---|--------------------------|-5-----------|
|--------------------------|-nh--|--------------------------|-nh----------|
|--------------------------|-----|--------------------------|-------------|
|--------------------------|-----|--------------------------|-------------|
|                          |     |                          |             |
|--------------------------|-----|--------------------------|-------------|
|--------------------------|-----|--------------------------|-------------|
|--------------------------|-----|--------------------------|-------------|
|--------------------------|-----|--------------------------|-------------|
|-2--2--2-2-2--2--2--2-2-2-|-----|-2--2--2-2-2--2--2--2-2-2-|-------------|
|-0--0--0-0-0--0--0--0-0-0-|-----|-0--0--0-0-0--0--0--0-0-0-|-------------|

|--------------------------|-15h17--------------15p14-|--------------------------|
|--------------------------|-15h17-x-1715-------------|--------------------------|
|--------------------------|-------------161514----14-|--------------------------|
|--------------------------|--------------------------|--------------------------|
|--------------------------|--------------------------|--------------------------|
|--------------------------|--------------------------|--------------------------|
|                          |                          |                          |
|--------------------------|--------------------------|--------------------------|
|--------------------------|--------------------------|--------------------------|
|--------------------------|--------------------------|--------------------------|
|--------------------------|--------------------------|--------------------------|
|-2--2--2-2-2--2--2--2-2-2-|--------------------------|-5--5--5-5-5--4--4--4-4-4-|
|-0--0--0-0-0--0--0--0-0-0-|--------------------------|-3--3--3-3-3--5--5--5-5-5-|

Rhythm for next part: (Riff 9)
|--------------------------------|
|--------------------------------|
|o------------------------------o|
|o2-------3-------5------6------o|
|-2-------3-------5------6-------|
|-0-------1-------3------4-------|

|-12------13------15-----16--|-12-11-10-9-10-9-8-7---------------------|
|-15b-----16b-----18b----19b-|---------------------12-11-10-9-10-9-8-7-|
|----------------------------|-----------------------------------------|
|----------------------------|-----------------------------------------|
|----------------------------|-----------------------------------------|
|----------------------------|-----------------------------------------|

                                                   t
|-------------------------------------|-----12h15h16p15p12---|
|-------------------------------------|---13--------------13-|Move up until
|-11-10-9-8-9-8-7-6-------------------|-12-------------------|you hit the 19th fret
|-------------------11-10-9-8-9-8-7-6-|----------------------|as your root
|-------------------------------------|----------------------|
|-------------------------------------|----------------------|
|-19-17-21-20-18-21-22-19-23-24-24\-|
|-----------------------------------|
|-----------------------------------|
|-----------------------------------|
|-----------------------------------|
|-----------------------------------|

Play: 	Riff 5 
	Riff 9 (Keyboard solo rhythm)
	Riff 3

Riff 10
|--------------------------|----|--------------------------|----|
|--------------------------|----|--------------------------|----|
|o-------------------------|---o|o-------------------------|----|
|o-------------------------|---o|o6--6--6-6-6--6--6--6-6-6-|----|
|-2--2--2-2-2--2--2--2-2-2-|----|-4--4--4-4-4--4--4--4-4-4-|----|
|-0--0--0-0-0--0--0--0-0-0-|----|--------------------------|----|

|-----------------------------------------------------|
|-----------------------------------------------------|
|---------------------------------------------------6-|
|-6--6--6-6-6--6--6--6-6-6--6--6--6-6-6--6--6--6-6--6-|
|-4--4--4-4-4--4--4--4-4-4--4--4--4-4-4--4--4--4-4--4-|
|-----------------------------------------------------|

End.
Suggest correction
comments
print report bad tab
5 comments total. Showing first comments.
0 reply
shadowofbodom 25 Oct 10, 2005 05:28 PM

not sure bout the chromatic part of the second solo, but besides that it sounds pretty good so far.
as it stands, 4 stars

0 reply
HC-Deathroll 41 Feb 11, 2007 05:38 PM

Good Tab. I play the main riff slightly different, instead of 14's on the G string, play 10 on the B. it's the same note, and the position is way easier to play.

0 reply
MetalJacky 10 Aug 04, 2008 09:07 PM

Nice tab. Although the last few notes in Riff 5 are incorrect. I saw a youtube video of a guy playing those end few notes around the 2nd to 6th frets and it sounds correct. just been going over it to see what hes actually playing haha :P

guest
You may want to rate the tab now too:
select rating
Wanna post a correction for this tab? Suggest correction