Oops, an error
Loading. Please wait.

Ugly Tab

version 1
version 1

Solo

Whole song

Interactive

1,481 views 1 this week
no commentswrite comment
1 2 3 4 5
please rate
add to favorites
launch autoscroll
font size
0
reset
how to read this tab
guitar tuner
Autoscroll
slow
fast
+/-
esc
set tempo
stop
Help us to improve Ultimate-Guitar.com Take our survey!
×
Author
Tabbers playing skills
drawnacrol 3,244
advanced +
Artist: Children of Bodom
Song: Ugly
Album: Relentless Reckless Forever
Tabbed by drawnacrol
Tuning: Drop C ( C G C F A D )

Watch my cover video for timing/fingering etc:
http://www.youtube.com/watch?v=6657I2nWuco

|---------------------------------------------10--12--13--12b13--12b13-|
|--------------------------------------10--13--------------------------|
|--12b14--\-/12b14r12p10--12~~--10--12---------------------------------|
|----------v-----------------------------------------------------------|
|----------------------------------------------------------------------|
|----------------------------------------------------------------------|

|--12b13r12p10-------/15-13-11-----------------------------------------|
|---------------11~\-----------15-13-11--------------------------------|
|---------------------------------------14-12--10p9----9-10p9-10p9-----|
|---------------------------------------------------12-------------12--|
|----------------------------------------------------------------------|
|----------------------------------------------------------------------|

|----------------------------------------------------------------------|
|-------------------------------------------10-------------------------|
|--9-10p9-10p9-----12p9--------12p9------------12--10--9--10p9---------|
|--------------12~------12p10-------12p10-----------------------12--10-|
|----------------------------------------------------------------------|
|----------------------------------------------------------------------|

|----------------------------------------------------------------------|
|--------------------------------------------13------------------------|
|-----------------------\-/10--12b13r12--10------12b13r12--10----------|
|--8-\------/10--\-/12---v---------------------------------------------|
|-----\----/------v----------------------------------------------------|
|------\---------------------------------------------------------------|

|--------10--10--------10--10--------10--------8--8--8--10--8--12------|
|--------10--10--------10--10--------10--------8--8--8--8---8--8-------|
|--12b13---------12b13---------12b13-----10b11-------------------------|
|----------------------------------------------------------------------|
|----------------------------------------------------------------------|
|----------------------------------------------------------------------|

|--13--------17---------20\17--18---------22--18p15--------------------|
|-----10/15------18/20-------------15/18------------16-----------------|
|----------------PH------------------------------------15-----------15-|
|----------------------------------------------------------17----17----|
|-------------------------------------------------------------18-------|
|----------------------------------------------------------------------|

|----------------------------------------------------------------------|
|----------------------------------------------------------------------|
|--12b13r12--10--12b13~~--10--9--10~--9--7--\-/9--\-/7--\-/5-----------|
|--------------------------------------------v-----v-----v-------------|
|----------------------------------------------------------------------|
|----------------------------------------------------------------------|

|----------------------------------------------------17----------------|
|---------------------------15-\-/-\-/-\-/-\---------20b22-------------|
|--\-/7--\-/-\-/-\-/-\-/--------v---v---v---\--------------------------|
|---v-----v---v---v---v----------------------\-------------------------|
|---------------------------------------------\------------------------|
|----------------------------------------------------------------------|

Guitar Solo: Drop D  Tuning ( D A D G B E )

|----------------------------------------------8--10--11--10b11--10b11-|
|---------------------------------------8--11--------------------------|
|--10b12--\-/10b12r10p8--10~~~---8--10---------------------------------|
|----------v-----------------------------------------------------------|
|----------------------------------------------------------------------|
|----------------------------------------------------------------------|

|--10b11r10p8-------/13-11-9-------------------------------------------|
|--------------9~~\----------13-11-9-----------------------------------|
|------------------------------------12-10--8p7-----7--8p7--8p7--------|
|------------------------------------------------10--------------10----|
|----------------------------------------------------------------------|
|----------------------------------------------------------------------|

|----------------------------------------------------------------------|
|-------------------------------------------8--------------------------|
|--7--8p7--8p7------10p7-------10p7------------10--8--7--8--7----------|
|---------------10~-------10p8-------10p8----------------------10--8---|
|----------------------------------------------------------------------|
|----------------------------------------------------------------------|

|----------------------------------------------------------------------|
|-------------------------------------------11-------------------------|
|------------------------\-/8--10b11r10--8------10b11r10--8------------|
|--6-\------/8--\-/10-----v--------------------------------------------|
|-----\----/-----v-----------------------------------------------------|
|------\---------------------------------------------------------------|

|---------8--8---------8--8---------8------6--6--6--8--6--10-----------|
|---------8--8---------8--8---------8------6--6--6--6--6--6------------|
|--10b11--------10b11--------10b11----8b9------------------------------|
|----------------------------------------------------------------------|
|----------------------------------------------------------------------|
|----------------------------------------------------------------------|

|--11--------15---------18\15--16---------20--16p13--------------------|
|------8/13------16/18-------------13/16------------14-----------------|
|----------------PH------------------------------------13-----------13-|
|----------------------------------------------------------15----15----|
|-------------------------------------------------------------16-------|
|----------------------------------------------------------------------|

|----------------------------------------------------------------------|
|----------------------------------------------------------------------|
|--10b11r10--8--10b11~~--8--7--8~--7--5--\-/7--\-/5--\-/3--------------|
|-----------------------------------------v-----v-----v----------------|
|----------------------------------------------------------------------|
|----------------------------------------------------------------------|

|----------------------------------------------------15----------------|
|---------------------------13-\-/-\-/-\-/-\---------18b20-------------|
|--\-/5--\-/-\-/-\-/-\-/--------v---v---v---\--------------------------|
|---v-----v---v---v---v----------------------\-------------------------|
|---------------------------------------------\------------------------|
|----------------------------------------------------------------------|
Suggest correction new What's this?
You can suggest a correction to this tab. Community and Mods will review your correction and vote to approve or reject it.
comments
We did not receive enough feedback on this tab! Please rate:
print report bad tab
1 2 3 4 5
guest
You may want to rate the tab now too:
select rating
Please do not post tabs as comments. Select "correction" instead!