Oops, an error
Loading. Please wait.

Vihaan Humppaa Tab

828 views 1 this week
no commentswrite comment
1 2 3 4 5
please rate
add to favorites
launch autoscroll
font size
0
reset
how to read this tab
guitar tuner
Autoscroll
slow
fast
+/-
esc
set tempo
stop
Help us to improve Ultimate-Guitar.com Take our survey!
×
Contributor
Difficulty
Tuning
W-Solo 31
novice
D# G# C# F# A# D#
Vihaan Humppa played by Alexi at the end of the Chaos Ridden Years DVD
Tabbed by Jax (Jaxjordison@hotmail.com) Thanks to Oslo for the lyrics

(I also did version 2 of chokehold but forgot to put my details -_- so any questions on 
bodom songs email me or add me on msn)

Play with a steady strum throughout.

Tuning: D#, G#, C#, F#, A#, D#

D
M synnyin nahkahousut jalassa
D
Lapsi kuunteli Black Sabbathia

-------------------------------------|
-------------------------------------|
-------------------------------------|
-7-7-7-7-5-5-5-5-3-3-3-3-3-3-3--5----|
-5-5-5-5-3-3-3-3-1-1-1-1-1-1-1--3----|
-------------------------------------|
Mutsi kers jkaapin oveen ??? Tarroja

D
Me kytiin kerran Lapissa
D
Siell oli paljon itikoita

------------------------------------|
------------------------------------|
------------------------------------|
-7-7-7-7-5-5-5-5-3-3-3-3-3-3-3------|
-5-5-5-5-3-3-3-3-1-1-1-1-1-1-1------|
------------------------------------|
Ne pkki meiklisen aivan tyteen Pahoa

---------------------------------------|
---------------------------------------|
---------------------------------------|
--------3-3-3-3-3--3-3-7-7-7-7-7-7-----|
---5-5--1-1-1-1-1--1-1-5-5-5-5-5-5-----|
---3-3---------------------------------|
Leirintalueella juntit, kuunteli humppaveikkoja

-------------------------------------------------|
-------------------------------------------------|
---------------------------------x-x-x-x-x-------|
-----3-3-3-3-3--3-3-7-7-7-7-7-7--x-x-x-x-x-------|
-5-5-1-1-1-1-1--1-1-5-5-5-5-5-5--x-x-x-x-x-------|
-3-3-----------------------------x-x-x-x-x-------|
Voit uskoa, jotta sapetti, M kato vihaan humppaa

------------------------------------------------------|
------------------------------------------------------|
------------------------------------------------------|
---5-5-5-5-5--10-10--13-13--5-5--------5-5------------|
---3-3-3-3-3--8---8--11-11--3-3--5-5--3-3--5-5--------|
---------------------------------3-3--------3-3-------|
Hei vanha vihtahousu kuule toiveeni

-----------------------------------------------------|
-----------------------------------------------------|
-----------------------------------------------------|
--5-5-5-5-5--10-10--13-13--5-5-------5-5-------12----|
--3-3-3-3-3--8--8---11-11--3-3--5-5--3-3--5-5--10----|
--------------------------------3-3-------3-3--------|
Ei    ???   tyydy    yllttmn    vois      helvettiin

---------------------------------------------------|
---------------------------------------------------|
---------------------------------------------------|
---7-7--5-5--10-10--9-9--7-7--5-5--10-10--9-9------|
---5-5--3-3--8--8---7-7--5-5--3-3--8--8---7-7------|
---------------------------------------------------|
Hei, tanssitaan tervassa ja syt sille ???

-------------------------------------------------------|
-------------------------------------------------------|
-------------------------------------------------------|
---7-7--5-5--10-10--9-9--7-7--5-5--10-10--9-9----------|
---5-5--3-3--8--8---7-7--5-5--3-3--8--8---7-7----------|
-------------------------------------------------------|
Kiusaa sit siihen malliin, ett loppuu humpparalli

Then repeat until the police arrive to spoil the fun
comments
We did not receive enough feedback on this tab! Please rate:
print report bad tab
1 2 3 4 5
I want to post or [tab]
guest
You may want to rate the tab now too:
select rating
Please do not post tabs as comments. Select "correction" instead!