Oops, an error
Loading. Please wait.

Were Not Gonna Fall Tab

version 1
version 1

Solo

Whole song

6,019 views 1 this week
7 commentsread comments
1 2 3 4 5
accurate
x 3
add to favorites
launch autoscroll
font size
0
reset
how to read this tab
guitar tuner
Autoscroll
slow
fast
+/-
esc
set tempo
stop
Help us to improve Ultimate-Guitar.com Take our survey!
×
Author
Tuning
C G C F A D
Artist:Children Of Bodom
Song:We're Not Gonna Fall
Album:Arew You Dea

Here the tab 4 the solo to "We're Not Gonna Fall" which is the last track on "Are You 
Yet?" It straight outta Guitar World so you know its right :) Its pretty tuff but if you 
your legato teckneek and string sweeping together its pretty easy Enjoy :)

 Lead                  T
D|---------------15h19-2419p15-------15h19\201917-20-19-17-----17----------|
A|-------------17--------------17--17---------------------20-19--2019-17---|
F|-----------16------------------16-------------------------------------19-|
C|---------17--------------------------------------------------------------|
G|-------19----------------------------------------------------------------|
C|--15h19------------------------------------------------------------------|

Rhythm
D|--------------------------------------------------------------------------|
A|--------------------------------------------------------------------------|
F|--------------------------------------------------------------------------|
C|--2----0----2-----------2----0----2----------------2----0---9---------7---|
G|--2----0----2-----------2----0----2----------------2----0---7---------5---|
C|--2----0----2---2---2---2----0----2------2----2----2----0--------0--------|
                  *   *                    *    *

Lead
D|---------------------------------------------15-17----------------17-19-20-|
A|------------------------------------15-17-19-------19-17-19-----20---------|
F|17-16----------------------14-16-17----------------------------------------|
C|-----19----17--16\14-16-17-------------------------------------------------|
G|---------------------------------------------------------------------------|
C|---------------------------------------------------------------------------|

Rhythm
D|--------------------------------------------------------------------------|
A|--------------------------------------------------------------------------|
F|--------------------------------------------------------------------------|
C|2-----------------------------------4---------------------------0---------|
G|2-----------------------------------2---------------------------0---------|
C|2---------------------------------------------------------------0---------|

Lead
D|\22-19-20-22-22b-----15h19p15----------15h18p15----------15h19p15----19h22-|
A|------------------------------17----19----------17----17----------17-------|
F|---------------------------------16----------------16----------------------|
C|---------------------------------------------------------------------------|
G|---------------------------------------------------------------------------|
C|---------------------------------------------------------------------------|

Rhythm
D|--------------------------------------------------------------------------|
A|--------------------------------------------------------------------------|
F|-------------2------------------------------------------------------------|
C|-------------2-------2-----0----2------------------2-----0-----2----------|
G|-------------0-------2-----0----2------------------2-----0-----2----------|
C|---------------------2-----0----2------2-------2---2-----0-----2----2-----|
                                         *       *                    *

Lead
D|p19-------19h20p19----------19h22p19----24\----------------------------18-|
A|----20--20---------20----20----------20------17-------------15---18-------|
F|------19--------------19---------------------------16---15----------------|
C|--------------------------------------------------------------------------|
G|--------------------------------------------------------------------------|
C|--------------------------------------------------------------------------|

Rhythm
D|--------------------------------------------------------------------------|
A|--------------------------------------------------------------------------|
F|--------------------------------------------------------------------------|
C|--------------------------------------9-------------------8---------------|
G|--------------------------------------7-------------------8---------------|
C|----------------------------------------------------------8---------------|

Lead
D|--20----22---17----------------------------13-------15--------------------|
A|------------------19------------------13----------------------------------|
F|-----------------------19------\14----------------------------------------|
C|--------------------------------------------------------------------------|
G|--------------------------------------------------------------------------|
C|--------------------------------------------------------------------------|

Rhythm
D|--------------------------------------------------------------------------|
A|--------------------------------------------------------------------------|
F|--------------------------------------------------------------------------|
C|-------7-----------------------10-----------------------------------------|
G|-------5-----------------------8------------------------------------------|
C|--------------------------------------------------------------------------|

There it is, in all in its finger bleeding glory! If you cant get it down i suggest 
the metronome and playing it slow at maybe 110 BPM and gradually build up speed.

Tabbed by Isaiah Padilla

Questions and comments are always welcome so E-mail me at dethcab4u@yahoo.com
Suggest correction
Give kudos to tab author, rate the tab!
1 2 3 4 5
comments
print report bad tab
7 comments total. Showing first comments.
0 reply
HerVoiCeResIdEs 103 wrote on June 3 2006, 11:21 am

dont take credit for that solo...cuz isnt that called plagiarism..its good anyway

0 reply
ChurchNSkate 10 wrote on June 4 2006, 04:30 am

He isn't taking credit for it. He specifically states that it's directly from Guitar World.

0 reply
INNOCENT VICTIM 56 wrote on June 4 2006, 06:43 pm

Thank you

guest
You may want to rate the tab now too:
select rating
Please do not post tabs as comments. Select "correction" instead!