Oops, an error
Loading. Please wait.

Were Not Gonna Fall Tab

version 1
version 1

Solo

Whole song

18,819 views 24 this week
1 commentread comment
1 2 3 4 5
excellent!
x 2
add to favorites
launch autoscroll
font size
0
reset
how to read this tab
guitar tuner
Tab Pro tools
  • play this tab
  • loop segment
  • change instrument
  • show fretboard
  • metronome
Autoscroll
slow
fast
+/-
esc
set tempo
stop
Difficulty
Tuning
intermediate
C G C F A D
Tabbed by *3ReeZy (black_breeze)

Tuning:  Dropped C

Speed=190 

4/4

A|---------------|-----------------|----------------|------------|
 |---------------|-----------------|----------------|------------|
 |---------------|-----------------|----------------|------------|
 |-------7-------|-----------------|-------7--------|-7------9-7-|
 |-------5-------|-----------------|-------5-10-9-7-|---10-9-7-5-|
 |-5-4-2---5-4-5-|-2-2-2-2-2-2-2-2-|-5-4-2----------|------------|

B|--------------------|-----------------|----------------|-----------------|
 |--------------------|-----------------|----------------|-----------------|
 |--------------------|-----------------|----------------|-----------------|
 |-------7------------|-----------------|-------7--------|-------9-7---7-9-|
 |-------5------------|-----------------|-------5-10-9-7-|-9---9-----9-----|
 |-5-4-2---5-4-5~a.h.-|-2-2-2-2-2-2-2-2-|-5-4-2----------|---9-------------|
 Play these 2 lines twice(ABAB)

C|-----------|--------------|----------|---------|
 |-----------|--------------|----------|---------|
 |-----------|--------------|----------|---------|
 |-2---0-----|--9--9--7--7--|--5--7----|-4--7----|
 |-2---0-----|--9--9--7--7--|--3--5----|-2--5----|
 |-2---0-----|--------------|----------|---------|  Play twice too(CC)


  (Alexis starts to sing)
D|---------------|-------------|---------------------------------|
 |---------------|-------------|---------------------------------|
 |---------------|-------------|---------------------------------|
 |-2-0-2---2-0-2-|---------9-7-|---------------------------------|
 |-2-0-2---2-0-2-|---------7-5-|-----------------2-2-2-2-2-2-2-2-|
 |-2-0-2---------|-2-0-5-0-----|-2-2-2-2-5-5-4-4-----------------|

 |---------------------------------|--------------|--------------|
 |---------------------------------|--------------|--------------|
 |---------------------------------|--------------|--------------|
 |---------------------------------|-2-0-2--2-0-2-|---------7-10-|
 |-----------------0-0-0-0-0-0-0-0-|-2-0-2--2-0-2-|---------5-8--|
 |-0-0-0-0-4-4-2-2-----------------|-2-0-2--------|-2-0-5-0------|

 |---------------------------------|----------------------------------|
 |---------------------------------|----------------------------------|
 |-----------------6-6-6-6-6-6-6-6-|-2-2-2-2-1-1----------------------|
 |-5-5-5-5-8-8-7-7-----------------|--------------5-5-3-3-3-3-3-3-3-3-|
 |---------------------------------|----------------------------------|
 |---------------------------------|----------------------------------|

 |--------------|-------------|--------------|--------------|
 |--------------|-------------|--------------|--------------|
 |--------------|-----------4-|--------------|--------------|
 |-6-4-6--6-4-6-|-------6-----|-----4------2-|-----4------2-|
 |-4-2-4--4-2-4-|-4-7-4---4---|-2-2-2--0-0-0-|-2-2-2--0-0-0-|
 |--------------|-------------|--------------|--------------|
 
 
comments
We did not receive enough feedback on this tab! Please rate:
print report bad tab
1 2 3 4 5
1 comment total.
0 reply
Cnorris666 wrote on November 22 2007, 03:18 pm

Dude awesome tab.
Missing the part at 1:15 seconds to 1:30.
Other than that, awesome tab.

I want to post or [tab]
guest
You may want to rate the tab now too:
select rating
Please do not post tabs as comments. Select "correction" instead!