Oops, an error
Loading. Please wait.

Youre Better Off Dead Bass Tab

version 1
version 1

Whole song

431 views 1 this week
no commentswrite comment
1 2 3 4 5
2 more votes to show rating
add to favorites
launch autoscroll
font size
0
reset
guitar tuner
Autoscroll
slow
fast
+/-
esc
set tempo
stop
Help us to improve Ultimate-Guitar.com Take our survey!
×
Tune down

F||--------------------------|--------------------------|
C||--------------------------|--------------------------|
G||--------------------------|--------------------------|
D||--0--0--0--0--0--0--0--0--|--0--0--0--0--0--0--0--0--|
A||--------------------------|--------------------------|


                                                      
--------------------------|--------------------------|
--------------------------|--------------------------|
--------------------------|--------------------------|
--0--0--0--0--0--0--0--0--|--0--0--0--0--0--0--0--0--|
--------------------------|--------------------------|


                                                      
--------------------------|--------------------------|
--------------------------|--------------------------|
--------------------------|--------------------------|
--0--0--0--0--0--0--0--0--|--0--0--0--0--0--0--0--0--|
--------------------------|--------------------------|


                                                                                
--------------------------|--------------------------||------------------------|
--------------------------|--------------------------||*-----------------------|
--------------------------|--------------------------||------------------------|
--0--0--0--0--0--0--0--0--|--0--0--0--0--0--0--0--0--||*--2----0--2----0--3----|
--------------------------|--------------------------||------------------------|


                                                                             
-----------------------|-----------------------|---------------------------||
-----------------------|-----------------------|--------------------------*||
------------------5----|-----------------------|---------------------------||
--2----0--2----0-------|--2----0--2----0--3----|--------------------------*||
-----------------------|-----------------------|--3--3--3--3--3--3--3--3---||


                                                                               
----||------------------------|-----------------------|-----------------------|
----||*-----------------------|-----------------------|-----------------------|
----||------------------------|------------------5----|-----------------------|
----||*--2----0--2----0--3----|--2----0--2----0-------|--2----0--2----0--3----|
----||------------------------|-----------------------|-----------------------|


                                                                      
---------------------------||-----------------|------------------|---|
--------------------------*||-----------------|------------------|---|
---------------------------||-----------------|------------------|---|
--------------------------*||-----------0--2--|--2------0--------|---|
--3--3--3--3--3--3--3--3---||--------4--------|------------------|---|


                                                                               
------------------|--------------------|---------------------|----------------|
------------------|--------------------|---------------------|----------------|
------------------|--------------------|---------------------|----------------|
--2------0--------|----------3----2----|--2------0------2----|------3----5----|
------------------|--------------------|---------------------|----------------|


                                                                    
------------------|----------------------||------------------------|
------------------|----------------------||*-----------------------|
------------------|--3-------------------||------------------------|
--2------0--------|-------3----3----2----||*--2----0--2----0--3----|
------------------|----------------------||------------------------|


                                                                             
-----------------------|-----------------------|---------------------------||
-----------------------|-----------------------|--------------------------*||
------------------5----|-----------------------|---------------------------||
--2----0--2----0-------|--2----0--2----0--3----|--------------------------*||
-----------------------|-----------------------|--3--3--3--3--3--3--3--3---||


                                                                                
---------------8--11--9--11--|------------------------|------------------------|
--7--10--9--7----------------|------------------------|------------------------|
-----------------------------|------------------------|------------------------|
-----------------------------|------------------------|------------------------|
-----------------------------|--5----5--3----3--3--5--|--5----5--1----1--1--1--|


                                                                           
------------------------|------------------------|------------------------|
------------------------|------------------------|------------------------|
--------7----------5----|--------3----------5----|------------------------|
------------------------|------------------------|------------------------|
--5--5-------3--3-------|--1--1-------3--3-------|--5----5--3----3--3--5--|


                                                                           
------------------------|------------------------|------------------------|
------------------------|------------------------|------------------------|
------------------------|--------7----------5----|--------3----------5----|
------------------------|------------------------|------------------------|
--5----5--1----1--1--1--|--5--5-------3--3-------|--1--1-------3--3-------|


                                                                             
------------------------|------------------------|--------------------------|
------------------------|------------------------|--------------------------|
------------------------|------------------------|--------------------------|
------------------------|------------------------|--------------------------|
--7----7--5----5--5--7--|--7----7--3----3--3--3--|--7--7--7--7--5--5--5--5--|


                                                                             
--------------------------|------------------------|------------------------|
--------------------------|------------------------|------------------------|
--------------------------|------------------------|------------------------|
--------------------------|------------------------|------------------------|
--3--3--3--3--5--5--5--5--|--7----7--5----5--5--7--|--7----7--3----3--3--3--|


                                                      
--------------------------|--------------------------|
--------------------------|--------------------------|
--------------------------|--------------------------|
--------------------------|--------------------------|
--7--7--7--7--5--5--5--5--|--5--5--5--5--7--7--5--5--|


                                                                              
--------------------------------------|--------------------------------------|
--------------------------------------|--------------------------------------|
--------------------------------------|--------------------------------------|
--------------------------------------|--------------------------------------|
--3--3--3--3--3--3--3--3--3--3--3--3--|--5--5--5--5--5--5--5--5--5--5--5--5--|


                                                                              
--------------------------------------|--------------------------------------|
--------------------------------------|--------------------------------------|
--------------------------------------|--------------------------------------|
--------------------------------------|--------------------------------------|
--5--5--5--5--5--5--5--5--5--5--5--5--|--3--3--3--3--3--3--3--3--3--3--3--3--|


                                                                              
--------------------------------------|--------------------------------------|
--------------------------------------|--------------------------------------|
--------------------------------------|--------------------------------------|
--------------------------------------|--------------------------------------|
--3--3--3--3--3--3--3--3--3--3--3--3--|--5--5--5--5--5--5--5--5--5--5--5--5--|


                                                                              
--------------------------------------|--------------------------------------|
--------------------------------------|--------------------------------------|
--5--5--5--5--5--5--9--9--9--9--9--9--|--7--7--7--7--7--7--------------------|
--------------------------------------|--------------------5--5--5--4--4--4--|
--------------------------------------|--------------------------------------|


                                                                              
--------------------------------------|--------------------------------------|
--------------------------------------|--------------------------------------|
--------------------------------------|--------------------------------------|
--------------------------------------|--------------------------------------|
--3--3--3--3--3--3--3--3--3--3--3--3--|--5--5--5--5--5--5--5--5--5--5--5--5--|


                                                                              
--------------------------------------|--------------------------------------|
--------------------------------------|--------------------------------------|
--------------------------------------|--------------------------------------|
--------------------------------------|--------------------------------------|
--5--5--5--5--5--5--5--5--5--5--5--5--|--3--3--3--3--3--3--3--3--3--3--3--3--|


                                                                              
--------------------------------------|--------------------------------------|
--------------------------------------|--------------------------------------|
--------------------------------------|--------------------------------------|
--------------------------------------|--------------------------------------|
--3--3--3--3--3--3--3--3--3--3--3--3--|--5--5--5--5--5--5--5--5--5--5--5--5--|


                                                                              
--------------------------------------|--------------------------------------|
--------------------------------------|--------------------------------------|
--5--5--5--5--5--5--9--9--9--9--9--9--|--7--7--7--7--7--7--------------------|
--------------------------------------|--------------------5--5--5--4--4--4--|
--------------------------------------|--------------------------------------|


                                                                
------------------|---------------------|------------------|---|
------------------|---------------------|------------------|---|
------------------|---------------------|------------------|---|
--2------0--------|------------0--0--0--|--2------0--------|---|
------------------|---------------------|------------------|---|


                                                                           
------------------------|---|------------------|----------------------|---|
------------------------|---|------------------|----------------------|---|
-------------------9----|---|------------------|--5-------------------|---|
--2--2--2--0----0-------|---|--2------0--------|-------5----5----4----|---|
------------------------|---|------------------|----------------------|---|


      2x     3x                                             
|-----||-----||--------------------|-----------------------|
|*---*||*---*||--------------------|-----------------------|
|-----||-----||--7--------------7--|--6----6--5----5--4----|
|*---*||*---*||--------------------|-----------------------|
|-----||-----||--------------------|-----------------------|


                                                                         
--------------------|-----------------------||--------------------------|
--------------------|-----------------------||*-------------------------|
--7--------------7--|--6----6--5----5--4----||--------------------------|
--------------------|-----------------------||*-------------------------|
-----------------5--|--4----4--3----3--2----||---5----5--5--5--5--5--5--|


                                                     
--------------------------|-------------------------|
--------------------------|-------------------------|
--------------------------|-------------------------|
--------------------------|-------------------------|
--4--4--4--3--3--3--2--2--|--5----5--5--5--5--5--5--|


                                                         
---------------------------||---------------------------|
--------------------------*||*--------------------------|
---------------------------||---2--2--2--4--4--4--4--4--|
--------------------------*||*--------------------------|
--4--4--4--3--3--3--2--2---||---------------------------|


                                                      
--------------------------|--------------------------|
--------------------------|--------------------------|
--2--2--2--4--4--4--2--2--|--2--2--2--4--4--4--4--4--|
--------------------------|--------------------------|
--------------------------|--------------------------|


                                                         
---------------------------||---------------------------|
--------------------------*||*--------------------------|
---------------------------||---4--4--4--6--6--6--6--6--|
--4--4--4--5--5--5--7--7--*||*--------------------------|
---------------------------||---------------------------|


                                                      
--------------------------|--------------------------|
--------------------------|--------------------------|
--4--4--4--6--6--6--4--4--|--4--4--4--6--6--6--6--6--|
--------------------------|--------------------------|
--------------------------|--------------------------|


                                                                            
---------------------------||-------------------|--------------------------|
--------------------------*||-------------------|--------------------------|
---------------------------||-------------------|--------------------------|
--6--6--6--7--7--7--9--9--*||--2----------------|--------------------------|
---------------------------||-------------------|--5--5--5--5--5--5--5--5--|


                                                      
--------------------------|--------------------------|
--------------------------|--------------------------|
--------------------------|--------------------------|
--------------------------|--------------------------|
--4--4--4--3--3--3--2--2--|--5--5--5--5--5--5--5--5--|


                                                      
--------------------------|--------------------------|
--------------------------|--------------------------|
--------------------------|--------------------------|
--------------------------|--------------------------|
--4--4--4--3--3--3--2--2--|--5--5--5--5--5--5--5--5--|


                                                      
--------------------------|--------------------------|
--------------------------|--------------------------|
--------------------------|--------------------------|
--------------------------|--------------------------|
--4--4--4--3--3--3--2--2--|--5--5--5--5--5--5--5--5--|


                                                      
--------------------------|--------------------------|
--------------------------|--------------------------|
--------------------------|--------------------------|
--------------------------|--------------------------|
--4--4--4--3--3--3--2--2--|--5--5--5--5--5--5--5--5--|


                                                      
--------------------------|--------------------------|
--------------------------|--------------------------|
--------------------------|--------------------------|
--------------------------|--------------------------|
--4--4--4--3--3--3--2--2--|--5--5--5--5--5--5--5--5--|


                                                      
--------------------------|--------------------------|
--------------------------|--------------------------|
--------------------------|--------------------------|
--------------------------|--------------------------|
--4--4--4--3--3--3--2--2--|--5--5--5--5--5--5--5--5--|


                                                      
--------------------------|--------------------------|
--------------------------|--------------------------|
--------------------------|--------------------------|
--------------------------|--------------------------|
--4--4--4--3--3--3--2--2--|--5--5--5--5--5--5--5--5--|


                                                      
--------------------------|--------------------------|
--------------------------|--------------------------|
--------------------------|--------------------------|
--------------------------|--------------------------|
--4--4--4--3--3--3--2--2--|--5--5--5--5--5--5--5--5--|


                                                      
--------------------------|--------------------------|
--------------------------|--------------------------|
--------------------------|--2--2--2--4--4--4--4--4--|
--------------------------|--------------------------|
--4--4--4--3--3--3--2--2--|--------------------------|


                                                      
--------------------------|--------------------------|
--------------------------|--------------------------|
--2--2--2--4--4--4--2--2--|--2--2--2--4--4--4--4--4--|
--------------------------|--------------------------|
--------------------------|--------------------------|


                                                      
--------------------------|--------------------------|
--------------------------|--------------------------|
--------------------------|--2--2--2--4--4--4--4--4--|
--4--4--4--5--5--5--7--7--|--------------------------|
--------------------------|--------------------------|


                                                      
--------------------------|--------------------------|
--------------------------|--------------------------|
--2--2--2--4--4--4--2--2--|--2--2--2--4--4--4--4--4--|
--------------------------|--------------------------|
--------------------------|--------------------------|


                                                      
--------------------------|--------------------------|
--------------------------|--------------------------|
--------------------------|--2--2--2--4--4--4--4--4--|
--4--4--4--5--5--5--7--7--|--------------------------|
--------------------------|--------------------------|


                                                      
--------------------------|--------------------------|
--------------------------|--------------------------|
--2--2--2--4--4--4--2--2--|--2--2--2--4--4--4--4--4--|
--------------------------|--------------------------|
--------------------------|--------------------------|


                                                      
--------------------------|--------------------------|
--------------------------|--------------------------|
--------------------------|--2--2--2--4--4--4--4--4--|
--4--4--4--5--5--5--7--7--|--------------------------|
--------------------------|--------------------------|


                                                                              
--------------------------|--------------------------|-----------------------|
--------------------------|--------------------------|-----------------------|
--2--2--2--4--4--4--2--2--|--2--2--2--4--4--4--4--4--|--3----3--2----2--1----|
--------------------------|--------------------------|-----------------------|
--------------------------|--------------------------|-----------------------|


                                                               
------------|------------------------|------------------------|
------------|------------------------|------------------------|
------------|------------------------|------------------------|
------------|------------------------|------------------------|
--1----3----|--5----5--3----3--3--5--|--5----5--1----1--1--1--|


                                                                           
------------------------|------------------------|------------------------|
------------------------|------------------------|------------------------|
--------7----------5----|--------3----------5----|------------------------|
------------------------|------------------------|------------------------|
--5--5-------3--3-------|--1--1-------3--3-------|--5----5--3----3--3--5--|


                                                                           
------------------------|------------------------|------------------------|
------------------------|------------------------|------------------------|
------------------------|--------7----------5----|--------3----------5----|
------------------------|------------------------|------------------------|
--5----5--1----1--1--1--|--5--5-------3--3-------|--1--1-------3--3-------|


                                                                             
------------------------|------------------------|--------------------------|
------------------------|------------------------|--------------------------|
------------------------|------------------------|--------------------------|
------------------------|------------------------|--------------------------|
--7----7--5----5--5--7--|--7----7--3----3--3--3--|--7--7--7--7--5--5--5--5--|


                                                                             
--------------------------|------------------------|------------------------|
--------------------------|------------------------|------------------------|
--------------------------|------------------------|------------------------|
--------------------------|------------------------|------------------------|
--3--3--3--3--5--5--5--5--|--7----7--5----5--5--7--|--7----7--3----3--3--3--|


                                                                          
--------------------------|--------------------------|-------------------|
--------------------------|--------------------------|-------------------|
--------------------------|--------------------------|-------------------|
--------------------------|--------------------------|--2----------------|
--7--7--7--7--5--5--5--5--|--3--3--3--3--5--5--5--5--|-------------------|


                                                           
-------------------|--------------------------------------|
-------------------|--------------------------------------|
-------------------|--------------------------------------|
-------------------|--------------------------------------|
--2----------------|--3--3--3--3--3--3--3--3--3--3--3--3--|


                                                                              
--------------------------------------|--------------------------------------|
--------------------------------------|--------------------------------------|
--------------------------------------|--------------------------------------|
--------------------------------------|--------------------------------------|
--5--5--5--5--5--5--5--5--5--5--5--5--|--5--5--5--5--5--5--5--5--5--5--5--5--|


                                                                              
--------------------------------------|--------------------------------------|
--------------------------------------|--------------------------------------|
--------------------------------------|--------------------------------------|
--------------------------------------|--------------------------------------|
--3--3--3--3--3--3--3--3--3--3--3--3--|--3--3--3--3--3--3--3--3--3--3--3--3--|


                                                                              
--------------------------------------|--------------------------------------|
--------------------------------------|--------------------------------------|
--------------------------------------|--5--5--5--5--5--5--9--9--9--9--9--9--|
--------------------------------------|--------------------------------------|
--5--5--5--5--5--5--5--5--5--5--5--5--|--------------------------------------|


                                                                              
--------------------------------------|--------------------------------------|
--------------------------------------|--------------------------------------|
--7--7--7--7--7--7--------------------|--------------------------------------|
--------------------5--5--5--4--4--4--|--------------------------------------|
--------------------------------------|--3--3--3--3--3--3--3--3--3--3--3--3--|


                                                                              
--------------------------------------|--------------------------------------|
--------------------------------------|--------------------------------------|
--------------------------------------|--------------------------------------|
--------------------------------------|--------------------------------------|
--5--5--5--5--5--5--5--5--5--5--5--5--|--5--5--5--5--5--5--5--5--5--5--5--5--|


                                                                              
--------------------------------------|--------------------------------------|
--------------------------------------|--------------------------------------|
--------------------------------------|--------------------------------------|
--------------------------------------|--------------------------------------|
--3--3--3--3--3--3--3--3--3--3--3--3--|--3--3--3--3--3--3--3--3--3--3--3--3--|


                                                                              
--------------------------------------|--------------------------------------|
--------------------------------------|--------------------------------------|
--------------------------------------|--5--5--5--5--5--5--9--9--9--9--9--9--|
--------------------------------------|--------------------------------------|
--5--5--5--5--5--5--5--5--5--5--5--5--|--------------------------------------|


                                                               
--------------------------------------|-----------------------|
--------------------------------------|-----------------------|
--7--7--7--7--7--7--------------------|-----------------------|
--------------------5--5--5--4--4--4--|--2----0--2----0--3----|
--------------------------------------|-----------------------|


                                                                           
-----------------------|-----------------------|--------------------------|
-----------------------|-----------------------|--------------------------|
------------------5----|-----------------------|--------------------------|
--2----0--2----0-------|--2----0--2----0--3----|--------------------------|
-----------------------|-----------------------|--3--3--3--3--3--3--3--3--|


                                                                  
--------------------------|-------------------|------------------|
--------------------------|-------------------|------------------|
--------------------------|-------------------|------------------|
--------------------------|-------------------|------------------|
--3--3--3--3--3--3--3--3--|--3----------------|------------------|


                  
----------------||
----------------||
----------------||
--2----2--------||
----------------||
Suggest correction
Give kudos to tab author, rate the tab!
1 2 3 4 5
comments
print report bad tab
guest
You may want to rate the tab now too:
select rating
Wanna post a correction for this tab? Suggest correction