Oops, an error
Loading. Please wait.

Youre Better Off Dead tab

version 2
version 2

Whole song

1,709 views 1 this week
2 commentsread comments
1 2 3 4 5
x 4
add to favorites
×
Save as Personal and add changes to this tab that will be seen only by you. Learn more ›
×
You can save this tab as Personal to edit and correct it or add notes. All changes will be seen only by you. Learn more »
launch autoscroll
font size
0
reset
how to read this tab
guitar tuner
backing track
0:00
0:00
edit
Autoscroll
slow
fast
+/-
esc
set tempo
stop
-------------------------------------------------------------------------------
		you're better off dead - children of bodom
-------------------------------------------------------------------------------
Tabbed by: frozen pineapple
Email: anti-hangover@hotmail.com

Tuning:DGCFAD



d|---------------|--------------|---------------|-----------------------|
A|---------------|--------------|---------------|-----------------------|
F|---------------|-----------0--|---------------|-----------------------|
C|---4---4---5---|---4---4---0--|---4---4---5---|-----------------------|
G|---4---4---5---|---4---4---0--|---4---4---5---|-----------------------|
D|---2-2-2-2-3---|---2-2-2-2----|---2-2-2-2-3---|--320-430-320-430------|
       x   x	       x   x          x   x        xxx xxx xxx xxx 



						 
d|---------------|--------------|---------------|---------------------------|
A|---------------|--------------|---------------|---------------------------|
F|---------------|-----------0--|---------------|------------------11-10----|
C|---4---4---5---|---4---4---0--|---4---4---5---|------11--9-11-12----------|
G|---4---4---5---|---4---4---0--|---4---4---5---|---12----------------------|
D|---2-2-2-2-3---|---2-2-2-2----|---2-2-2-2-3---|---------------------------|
       x   x	       x   x          x   x     
						 2nd guitar
						|---------------------------|
						|---------------------------|
						|---------------------------|
						|----------------9-12-11----|
						|----9-12-11-12-------------|
						|---------------------------|




d|---------------|--------------|---------------|---------------------------|
A|---------------|--------------|---------------|---------------------------|
F|---------------|--------------|---------------|---------------------------|
C|---4---4---5---|---4---4---4--|---4---4---5---|---------------------------|
G|---4---4---5---|---4---4---4--|---4---4---5---|-------------7777-6666-----|
D|---2-2-2-2-3---|---2-2-2-2----|---2-2-2-2-3---|---2222-5555---------------|
       x   x	       x   x          x   x     
						 2nd guitar
						|---------------------------|
						|---------------------------|
						|---------------------------|
						|---4444------7777-6666-----|
						|--------4444---------------|
						|---------------------------|

						   ...fuck you!!!


d|----------------|---------------|----------------|------------------------|
A|----------------|---------------|----------------|------------------------|
F|----------------|---------------|---------5-6-7--|-5-6-7------------------|
C|---4---4---5----|---4---4---4---|---4---4--------|------------------------|
G|---4---4---5----|---4---4---4---|---4---4--------|------------------------|
D|---2-2-2-2-3----|---2-2-2-2-----|---2-2-2--------|------------------------|
       x   x	        x   x           x  
      						 2nd guitar
				  |----------------|------------------------|
				  |----------------|------------------------|
				  |----------------|------------------------|
				  |---------4-6-7--|-7-6-4------------------|
				  |----------------|------------------------|
				  |----------------|------------------------|




d|---------------|-------------------------|---------------|-------------------------|
A|---------------|-------------------------|---------------|-------------------------|
F|---------------|-------------------------|---------------|-------------------------|
C|---4-----------|---4-----------7777-6666-|---4---2---4---|---4------7-7----2-------|
G|---4-------555-|---4-----5-5-5------7777-|---4---2---4---|---4------5-4-7--2-------|
D|---2-0h2-------|---2-0h2-----------------|---2---0---2---|---2-0h2------5--0-------|
             xxx

d|---------------|--------------|---------------|-----------------------|
A|---------------|--------------|---------------|-----------------------|
F|---------------|-----------0--|---------------|-----------------------|
C|---4---4---5---|---4---4---0--|---4---4---5---|-----------------------|
G|---4---4---5---|---4---4---0--|---4---4---5---|-----------------------|
D|---2-2-2-2-3---|---2-2-2-2----|---2-2-2-2-3---|--320-430-320-430------|
       x   x	       x   x          x   x        xxx xxx xxx xxx 





d|---------------|--------------|---------------|----------------------------|
A|---------------|--------------|---------------|----------------------------|
F|---------------|-----------0--|---------------|----------4-7-6-5-----------|
C|---4---4---5---|---4---4---0--|---4---4---5---|--4-7-6-7-------------------|
G|---4---4---5---|---4---4---0--|---4---4---5---|----------------------------|
D|---2-2-2-2-3---|---2-2-2-2----|---2-2-2-2-3---|----------------------------|
       x   x	       x   x          x   x    
						 2nd guitar
						|----------------------------|
						|------------7-6-5-----------|
						|----6-5-6-7-----------------|
						|--7-------------------------|
						|----------------------------|
						|----------------------------|



d|--------------------------------------|------------------------------------------|
A|--------------------------------------|------------------------------------------|
F|--9-9-9--7--7-7--9--9-9--5--5-5-7-----|-------9-------4-------5---------7--------|
c|--9-9-9--7--7-7--9--9-9--5--5-5-7-----|-------9-------4-------5---------7--------|
G|--7-7-7--5--5-5--7--7-7--3--3-3-5-----|---7-7-7---2-2-2---3-3-3-----5-5-5--------|
D|--------------------------------------|------------------------------------------|

						 2nd guitar
					|------------------------------------------|
					|------------------------------------------|
					|------------------------------------------|
					|-------9p5-------7------------------------|
					|---7-7-----9-9-9---10-10-7h10-9-9-5h9-----|
					|------------------------------------------|







d|--------------------------------------|-------------------------------------------|
A|--------------------------------------|-------------------------------------------|
F|--9-9-9--7--7-7--9--9-9------(12)-----|-------9-------4-------5---------7---------|
c|--9-9-9--7--7-7--9--9-9---------------|-------9-------4-------5---------7---------|
G|--7-7-7--5--5-5--7--7-7---------------|---7-7-7---2-2-2---3-3-3-----5-5-5---------|
D|--------------------------------------|-------------------------------------------|

						 2nd guitar
					|-------------------------------------------|
					|-------------------------------------------|
					|-------------------------------------------|
					|-------9p5-------7-------------------------|
					|---7-7-----9-9-9---10-10-7h10-9-9-5h9------|
					|-------------------------------------------|





d|---------------------------------------|------------------------------------------|
A|---------------------------------------|------------------------------------------|
F|--111111---9-9-9----111111----7-7-7----|---11-----------------7----------9--------|
c|--111111---9-9-9----111111----7-7-7----|---11-------11--------7----------9--------|
G|--9-9-9----7-7-7----9-9-9-----5-5-5----|---9--------11--------5----------7--------|
D|---------------------------------------|------------9-----------------------------|

    2nd guitar
d|-----------------------------12--------|-----9-14-12-14-10-14-9-14----14----14----|
A|-----------9----9--10-9-10------10-9-10|---12----------------------12----10----9~-|
F|--11-9-11----11------------------------|-11---------------------------------------|
c|---------------------------------------|------------------------------------------|
G|---------------------------------------|------------------------------------------|
D|---------------------------------------|------------------------------------------|






d|---------------------------------------|------------------------------------------|
A|---------------------------------------|------------------------------------------|
F|--111111---9-9-9----111111----7-7-7----|---11-----------------7----------9--------|
c|--111111---9-9-9----111111----7-7-7----|---11-------11--------7----------9--------|
G|--9-9-9----7-7-7----9-9-9-----5-5-5----|---9--------11--------5----------7--------|
D|---------------------------------------|------------9-----------------------------|

    2nd guitar
d|-----------------------------12--------|-----9-14-12-14-10-12-14-12-10---------------10-12-14-16|
A|-----------9~---9--10-9-10------10-9-10|---12-------------------------14-12-10-12-14------------|
F|--11-9-11----11------------------------|-11-----------------------------------------------------|
c|---------------------------------------|--------------------------------------------------------|
G|---------------------------------------|--------------------------------------------------------|
D|---------------------------------------|--------------------------------------------------------|







d|-------------------------|------------------------------------------------------------|
A|-------------------------|------------------------------------------------------------|
F|---7------7---11-----11--|------------------------------------------------------------|
c|---7------7---11-----11--|------------------------------------------------------------|
G|---5-555--5---9--999-9---|--7-7-7--7-7-7--7-7-7--7-7-7--------------------------------|
D|-------------------------|-------------------------------7-7-7--7-7-7--7-7-7--7-7-7---|


d|--14------17-14-------17-|------16-17-16------16-17-16------14-19-14-------14-17-14---|
A|----14-17-------14-17----|----17--------17--17--------17--15--------15---15--------15-|
F|-------------------------|--16------------16------------16-------------16-------------|
c|-------------------------|------------------------------------------------------------|
G|-------------------------|------------------------------------------------------------|
D|-------------------------|------------------------------------------------------------|






d|-------------------------|-----------------------------------------------------------|
A|-------------------------|-----------------------------------------------------------|
F|---7-----7--9-----9------|-----------------------------------------------------------|
c|---7-----7--9-----9------|-----------------------------------------------------------|
G|---5-555-5--7-777-7------|--5-5-5--5-5-5--9-9-9--9-9-9--7-7-7--7-7-7-----------------|
D|-------------------------|-------------------------------------------7-7-7--7-7-7----|

d|--14------17-16-------16-|-----------17----------16-17-21-17-16-------16-19-16----------------------|
A|----14-17-------14-17----|-----17-19----19-17-19----------------17-19----------19-------17-19-17----|
F|-------------------------|--19----------------------------------------------------16-19----------19-|
c|-------------------------|--------------------------------------------------------------------------|
G|-------------------------|--------------------------------------------------------------------------|
D|-------------------------|--------------------------------------------------------------------------|





d|-------------------------|------------------------------------------------------------|
A|-------------------------|------------------------------------------------------------|
F|----------7----------11--|------------------------------------------------------------|
c|----------7----------11--|----------------------------------------------------11------|
G|--555-555-5--999-999-9---|--7-7-7--7-7-7--7-7-7--7-7-7------------------------11------|
D|-------------------------|-------------------------------7-7-7--7-7-7--7-7-7--9-------|

d|--14------17-14-------17-|------16-17-16------16-17-16------14-19-14-------14-17-14---|
A|----14-17-------14-17----|----17--------17--17--------17--15--------15---15--------15-|
F|-------------------------|--16------------16------------16-------------16-------------|
c|-------------------------|------------------------------------------------------------|
G|-------------------------|------------------------------------------------------------|
D|-------------------------|------------------------------------------------------------|




d|-------------------------|-----------------------------------------------------------|
A|-------------------------|-----------------------------------------------------------|
F|---7-----7--9-----9------|-----------------------------------------------------------|
c|---7-----7--9-----9------|-----------------------------------------------------------|
G|---5-555-5--7-777-7------|--5-5-5--5-5-5--9-9-9--9-9-9--7-7-7--7-7-7-----------------|
D|-------------------------|-------------------------------------------7-7-7--7-7-7----|

d|--14------17-16-------16-|-----------17----------16-17-21-17-16-------16-19-16----------------------|
A|----14-17-------14-17----|-----17-19----19-17-19----------------17-19----------19-------17-19-17----|
F|-------------------------|--19----------------------------------------------------16-19----------19-|
c|-------------------------|--------------------------------------------------------------------------|
G|-------------------------|--------------------------------------------------------------------------|
D|-------------------------|--------------------------------------------------------------------------|







| /  slide up
| \  slide down
| h  hammer-on
| p  pull-off
| ~  vibrato
| +  harmonic
| x  Mute note
===============================================================================

            
            
Suggest correction
Creating personal tab
Creating personal tab
You can edit any tab online and save it as your Personal.

You can edit, replace or remove any tab part or add personal notes – all changes will be seen only by you.

Personal tabs can be accessed anytime from any device, even offline.
Learn more »
comments
print report bad tab
2 comments total.
0 reply
vIsIbleNoIsE 80 May 11, 2006 07:32 PM

non accurate, i think...although i'm pretty sure
i dunno about the rhythm part, but some of the leads, like the arpeggio part in the chorus, are off a bit.

0 reply
frozenpineapple 50 Jun 27, 2006 12:59 AM

I worked on this tab for just one night. day after that i just checked that i have no mistakes and then contributed. i have listened the song many times afterwards and noticed that i was wrong in many parts. i have learned now to take the time to work on tabs. and next time i'll only contribute full songs. thanx for the comment. :)

guest
You may want to rate the tab now too:
select rating
Wanna post a correction for this tab? Suggest correction