Oops, an error
Loading. Please wait.

Abeo tab

version 2
version 2

Whole song

Interactive

66 views 3 this week
no commentswrite comment
1 2 3 4 5
x 4
add to favorites
×
Save as Personal and add changes to this tab that will be seen only by you. Learn more ›
×
You can save this tab as Personal to edit and correct it or add notes. All changes will be seen only by you. Learn more »
launch autoscroll
font size
0
reset
how to read this tab
guitar tuner
edit
Autoscroll
slow
fast
+/-
esc
set tempo
stop
-----------------------------------------------------------------------------------------
|                                     CHIMAIRA - ABEO                                   |
|                             Album: Pass out of Existence (2001)                       |
-----------------------------------------------------------------------------------------
           If you have questions or corrections feel free to send me a message:
                        http://profile.ultimate-guitar.com/godspeedy/
                           https://www.facebook.com/Godspeedy14
                           
        Also, check out my Youtube channel: http://www.youtube.com/user/Godspeedy14

                                  Tuning: 7 string AEADGBE

Note: This is not a typical song, it's just a track in the middle of the album that
contains some deep synth sounds and some guitar notes. 
I tabbed this out because I made entire Pass out of Existence album tab.
You can check it here:
http://tabs.ultimate-guitar.com/c/chimaira/pass_out_of_existence_album_guitar_pro.htm

**************************************GUITAR NOTATION************************************
*                                                                                       *
*                                     | ~   vibrato  |                                  *
*                                     | b   bend     |                                  *
*                                     | r   release  |                                  *
*                                                                                       *
*****************************************************************************************

-----------------------------------------------------------------------------------------
|                                     (00:00-01:04)                                     |
-----------------------------------------------------------------------------------------

Guitar 1 (w/ clean and delay)

E|---------------------------------|---------------------------|
B|---------------------------------|---------------------------|
G|---------8-----------8-----------|-8-----------8b--r--~~~~~~~| 
D|-5---7-------5---7-------5---7---|-----5---7-----------------| x2
A|---------------------------------|---------------------------|
E|---------------------------------|---------------------------|
A|---------------------------------|---------------------------|

E|---------------------------------|---------------------------|
B|---------------------------------|---------------------------|
G|---------8-----------8-----------|-8-----------8~~~~~~~~~~~~~| 
D|-5---7-------5---7-------5---7---|-----5---7-----------------| x2
A|---------------------------------|---------------------------|
E|---------------------------------|---------------------------|
A|---------------------------------|---------------------------|

E|---------------------------------|---------------------------|
B|---------------------------------|---------------------------|
G|---------8-----------8-----------|-8-----------8b--r--~~~~~~~| 
D|-5---7-------5---7-------5---7---|-----5---7-----------------|
A|---------------------------------|---------------------------|
E|---------------------------------|---------------------------|
A|---------------------------------|---------------------------|

E|---------------------------------|---------------------------|
B|---------------------------------|---------------------------|
G|---------8-----------8-----------|-8-----------8b------------| 
D|-5---7-------5---7-------5---7---|-----5---7-----------------|
A|---------------------------------|---------------------------|
E|---------------------------------|---------------------------|
A|---------------------------------|---------------------------|

E|---------------------------------|---------------------------|
B|---------------------------------|---------------------------|
G|---------8-----------8-----------|-8-----------8--8b--r--~~~~| 
D|-5---7-------5---7-------5---7---|-----5---7-----------------|
A|---------------------------------|---------------------------|
E|---------------------------------|---------------------------|
A|---------------------------------|---------------------------|

E|---------------------------------|---------------------------|
B|---------------------------------|---------------------------|
G|---------8-----------8-----------|-8-----------8b--r--~~~~~~~| 
D|-5---7-------5---7-------5---7---|-----5---7-----------------|
A|---------------------------------|---------------------------|
E|---------------------------------|---------------------------|
A|---------------------------------|---------------------------|

E|---------------------------------|---------------------------|
B|---------------------------------|---------------------------|
G|---------8-----------8-----------|-8-----------8~~~~~~~~~~~~~| 
D|-5---7-------5---7-------5---7---|-----5---7-----------------|
A|---------------------------------|---------------------------|
E|---------------------------------|---------------------------|
A|---------------------------------|---------------------------|

E|---------------------------------|---------------------------|
B|---------------------------------|---------------------------|
G|---------8-----------8-----------|-8~~~~~~~~~~~~~~~~~~~~~~~~~| 
D|-5---7-------5---7-------5---7---|---------------------------|
A|---------------------------------|---------------------------|
E|---------------------------------|---------------------------|
A|---------------------------------|---------------------------|

Guitar 2 (w/ clean and delay)

E|---------------------------------|---------------------------|
B|---------------------------------|---------------------------|
G|---------------------------------|---------------------------|
D|---------------------------------|---------------------------|
A|---------------------------------|---------------------------|
E|-3~~~~~~~~~~~~~~~~~~~~~~~~~~~~~~~|~~~~~~~~~~~~~~~~~~~~~~~~~~~|
A|---------------------------------|---------------------------|


            
            
Suggest correction
Creating personal tab
Creating personal tab
You can edit any tab online and save it as your Personal.

You can edit, replace or remove any tab part or add personal notes – all changes will be seen only by you.

Personal tabs can be accessed anytime from any device, even offline.
Learn more »
comments
print report bad tab
guest
You may want to rate the tab now too:
select rating
Wanna post a correction for this tab? Suggest correction