Oops, an error
Loading. Please wait.

Empty Tab

1,083 views 1 this week
1 commentread comment
1 2 3 4 5
3 more votes to show rating
add to favorites
launch autoscroll
font size
0
reset
how to read this tab
guitar tuner
×
Best way to learn
"Empty"
Autoscroll
slow
fast
+/-
esc
set tempo
stop
Band: Chimaira
Title: Empty
Tabber: Sqweeky

||---------------------------------------------------------------------------||
||---------------------------------------------------------------------------||
||---------------------------------------------------------------------------||
||---------------------------------------------------------------------------||
||---------------------------------------------------------------------------||
||--0--12--13------0--10--12---repeat then----0-8--10------0--5--7-----3^----||



||------------------------------------------------------------------||
||------------------------------------------------------------------||
||------------------------------------------------------------------||
||------------------------------------------------------------------||
||--0--7--8---0---5--7-------------------0--3--5----0--3--5----1----||
||--0--7--8---0---5--7---repeat then-----0--3--5----0--3--5----1----||



||-------------------------------------------------------------12-----||
||-------------------------------------------------------------16-----||
||--------------------------------------8-----------------------------||
||--------------------------------------------------------------------||
||-0-0-0---0-0-0--0-0-0---0-0-0---6-----------------------------------||
||-0-0-0---0-0-0--0-0-0---0-0-0----------repeat with------------------||

||---------------------------------------------------------||
||---------------------------------------------------------||
||---------------------------------------------------------||
||---------------------------------------------------------||
||--8---7---5------3--2---0--------------------------------||
||--8---7---5------3--2---0--------------------------------||


||------------------------------------------------------||
||------------------------------------------------------||
||------------------------------------------------------||
||------------------------------------------------------||
||---0-0-0---8-8-8---3-3-3----4-4---1-1-----------------||
||---0-0-0---8-8-8---3-3-3----4-4---1-1-----------------||


||--------------------------------------------------------||
||--------------------------------------------------------||
||--------------------------------------------------------||
||--------------------------------------------------------||
||--8---7---5------3--2--3------8--7--5--3----0-0---0-0---||
||--8---7---5------3--2--3------8--7--5--3----0-0---0-0---||


||--------------------------------------------------------||
||--------------------------------------------------------||
||--------------------------------------------------------||
||--------------------------------------------------------||
||---0---1---0----8--7--5---2---2--3----------------------||
||---0---1---0----8--7--5---2---2--3----------------------||



||-------------------------------------------------------||
||-------------------------------------------------------||
||-------------------------------------------------------||
||-------------------------------------------------------||
||--0--1---0-------2---3---5---8----7---5----------------||
||--0--1---0-------2---3---5---8----7---5----------------||

||---------------------------------------------------------------------------------||
||---------------------------------------------------------------------------------||
||---------------------------------------------------------------------------------||
||-----------7--------------7-------------------7---------------7-------------7----||
||------5--------------------------------------------------------------------------||
||--5---------------5----------------5------------------5--------------5-----------||



||---------------------------------------------------------------------------------||
||---------------------------------------------------------------------------------||
||---------------------------------------------------------------------------------||
||-------------5------------5-------------5---------------5---------------5/7------||
||--------3------------------------------------------------------------------------||
||---3---------------3-------------3--------------3---------------3----------------||



||------------------------------------------------------||
||------------------------------------------------------||
||--7-----7--/9----5------------5--5---5-/-7------------||
||------------------------------------------------------||
||--5-----5--/7----3------------3--3---3-/-5------------||
||------------------------------------------------------||


||------------------------------------------------------||
||------------------------------------------------------||
||----10-/-----12---------8---/---14--------------------||
||------------------------------------------------------||
||-----8--/----10---------10--/---12--------------------||
||------------------------------------------------------||


||-------------------------------------------------------||
||-------------------------------------------------------||
||-------------------------------------------------------||
||-----------7----------7----------7---------------------||
||-------------------------------------------------------||
||---0--0--------0-0--------0-0------------repeat--------||


||---------------------------------------------------------||
||---------------------------------------------------------||
||---------------------------------------------------------||
||-----------5----------5-----------5----------------------||
||---------------------------------------------------------||
||---0-0---------0-0--------0-0----------------------------||
Suggest correction
Give kudos to tab author, rate the tab!
1 2 3 4 5
comments
print report bad tab
1 comment total.
0 reply
Death-Fly 10 Dec 17, 2006 12:00 PM

this tab is realy good
man good job

guest
You may want to rate the tab now too:
select rating
Wanna post a correction for this tab? Suggest correction