Oops, an error
Loading. Please wait.

Pass Out Of Existence album tab

version 1
version 1

Album

Whole song

Interactive

255 views 1 this week
no commentswrite comment
1 2 3 4 5
x 3
add to favorites
×
Save as Personal and add changes to this tab that will be seen only by you. Learn more ›
×
You can save this tab as Personal to edit and correct it or add notes. All changes will be seen only by you. Learn more »
launch autoscroll
font size
0
reset
how to read this tab
guitar tuner
edit
Autoscroll
slow
fast
+/-
esc
set tempo
stop
-----------------------------------------------------------------------------------------
|                    CHIMAIRA - PASS OUT OF EXISTENCE ENTIRE ALBUM TAB                  |
-----------------------------------------------------------------------------------------

*******************************R.I.P CHIMAIRA (1998-2014)********************************

           If you have questions or corrections feel free to send me a message:
                        http://profile.ultimate-guitar.com/godspeedy/
                           https://www.facebook.com/Godspeedy14
                           
        Also, check out my Youtube channel: http://www.youtube.com/user/Godspeedy14

                       Tuning: 7 string AEADGBE, 7 string GDGCFAD 

***************************************TRACK LIST****************************************
*                                                                                       *
*                                  1. LET GO                                            *
*                                  2. DEAD INSIDE                                       *
*                                  3. SEVERED                                           *
*                                  4. LUMPS                                             *
*                                  5. PASS OUT OF EXISTENCE                             *
*                                  6. ABEO                                              *
*                                  7. SP LIT                                            *
*                                  8. PAINTING THE WHITE TO GREY                        *
*                                  9. TASTE MY...                                       *
*                                  10. RIZZO                                            *
*                                  11. SPHERE                                           *
*                                  12. FORCED LIFE                                      *
*                                  13. OPTIONS                                          *
*                                  14. JADE                                             *
*                                  15. WITHOUT MORAL RESTRAINT                          *
*                                                                                       *
*****************************************************************************************

**************************************GUITAR NOTATIONS***********************************
*                                                                                       *
*                               | *   palm mute            |                            *
*                               | s   slide                |                            *
*                               | h   hammer-on            |                            *
*                               | p   pull-off             |                            *
*                               | ~   vibrato              |                            *
*                               | +   pinch harmonics      |                            *
*                               | x   Mute note            |                            *
*                               | b   bend                 |                            *
*                               | r   release              |                            *
*                               | br  bend release         |                            *
*                               | ..  let ring             |                            *
*                               | ``  Natural harmonic     |                            *
*                               | \\  digitech whammy down |                            *
*                               | //  digitech whammy up   |                            *
*                                                                                       *
*****************************************************************************************

*****************************************************************************************
*                                       #1 LET GO                                       *
*****************************************************************************************

-----------------------------------------------------------------------------------------
|                                    INTRO (00:00-00:25)                                |
-----------------------------------------------------------------------------------------

Guitar 1 and 2 (w/ dist)

E|---------------------------|
B|---------------------------|
G|---------14--15---14---15--|
D|---------x---x----x----x---| x3
A|---------12--12---12---12--|
E|-0---0---------------------|
A|-0---0---------------------|
   *   * 
E|---------------------------|
B|------------------16-------|
G|---------14--15--------15--|
D|---------x---x-------------|
A|---------12--12------------|
E|-0---0---------------------|
A|-0---0---------------------|
   *   *
E|---------------------------|
B|---------------------------|
G|---------14--15---14---15--|
D|---------x---x----x----x---| x6
A|---------12--12---12---12--|
E|-0---0---------------------|
A|-0---0---------------------|
   *   *
E|---------------------------|-------------|
B|---------------------------|-------------|
G|---------14--15---14---15--|-15s---------|
D|---------x---x----x----x---|-x-----------|
A|---------12--12---12---12--|-12s---------|
E|-0---0---------------------|-------------|
A|-0---0---------------------|-------------|
   *   *                         slide out downwards

-----------------------------------------------------------------------------------------
|                                     VERSE (00:25-01:01)                               |
-----------------------------------------------------------------------------------------

E|-----------------------------|
B|-----------------------------|
G|-----------------------------|
D|-----------------------------| x4
A|-----------------------------|
E|-----------------------------|
A|-0----1----4---3----1----4---|

E|--------|
B|--------|
G|--------|
D|--------|
A|-0------|
E|-0------|
A|-0------|
   *
E|-----------------------------|
B|-----------------------------|
G|-----------------------------|
D|-----------------------------|
A|-0----1----4---3----1----4---| x7
E|-0----1----4---3----1----4---|
A|-0----1----4---3----1----4---|

E|-----------------------------|
B|-----------------------------|
G|-----------------------------|
D|-----------------------------| 
A|-1----1----1---1----1----1---|
E|-1----1----1---1----1----1---|
A|-1----1----1---1----1----1---|
   *    *    *   *    *    *
E|-----------------------------|
B|-----------------------------|
G|-----------------------------|
D|-----------------------------|
A|-0----1----4---3----1----4---| x7
E|-0----1----4---3----1----4---|
A|-0----1----4---3----1----4---|
   *    *
E|-----------------------------|
B|-----------------------------|
G|-----------------------------|
D|-----------------------------| 
A|-1----1----1---1----1----1---|
E|-1----1----1---1----1----1---|
A|-1----1----1---1----1----1---|
   *    *    *   *    *    *
  
  w/ wah-wah                                      wah-wah off
E|--------------------------|----------------------------|
B|--------------------------|----------------------------|
G|--------------------------|----------------------------|
D|--------------------------|----------------------------|
A|-x--x--x--x--x--x--x-x-x--|-x--x--x-x-x--x-x-x--x-x-x--|
E|--------------------------|----------------------------|
A|--------------------------|----------------------------|

-----------------------------------------------------------------------------------------
|                                    CHORUS (01:01-01:25)                               |
-----------------------------------------------------------------------------------------

Guitar 1 and 2 (w/ dist)

E|---------------------|-----------------------|
B|---------------------|-----------------------|
G|---------------------|-----------15--15--15--|
D|---------------------|-----------x---x---x---| x3
A|-------6---------9---|-------10--12--12--12--|
E|-0--0--6---0--0--9---|-0--0--10--------------|
A|-0--0--6---0--0--9---|-0--0--10--------------|
   *  *      *  *        *  *
E|---------------------|-----------------------|
B|---------------------|-----------------------|
G|---------------------|-----------14b---------|
D|---------------------|-----------x-----------| 
A|-------6---------9---|-------10--11b---------|
E|-0--0--6---0--0--9---|-0--0--10--------------|
A|-0--0--6---0--0--9---|-0--0--10--------------|
   *  *      *  *        *  *
E|---------------------|-----------------------|
B|---------------------|-----------------------|
G|---------------------|-----------15--15--15--|
D|---------------------|-----------x---x---x---| x3
A|-------6---------9---|-------10--12--12--12--|
E|-0--0--6---0--0--9---|-0--0--10--------------|
A|-0--0--6---0--0--9---|-0--0--10--------------|
   *  *      *  *        *  *
E|---------------------|--------|
B|---------------------|--------|
G|---------------------|--------|
D|---------------------|--------|
A|-------6---------9---|-10s----|
E|-0--0--6---0--0--9---|-10s----|
A|-0--0--6---0--0--9---|-10s----|
   *  *      *  *          
-----------------------------------------------------------------------------------------
|                                    VERSE 2 (01:25-01:53)                              |
-----------------------------------------------------------------------------------------

Guitar 1 and 2 (w/ dist)

E|-----------------------------|
B|-----------------------------|
G|-----------------------------|
D|-----------------------------| x4
A|-----------------------------|
E|-----------------------------|
A|-0----1----4---3----1----4---|

E|-----------------------------|
B|-----------------------------|
G|-----------------------------|
D|-----------------------------|
A|-0----1----4---3----1----4---| x4
E|-0----1----4---3----1----4---|
A|-0----1----4---3----1----4---|

E|-----------------------------|
B|-----------------------------|
G|-----------------------------|
D|-----------------------------| 
A|-1----1----1---1----1----1---|
E|-1----1----1---1----1----1---|
A|-1----1----1---1----1----1---|
   *    *    *   *    *    *
E|-----------------------------|
B|-----------------------------|
G|-----------------------------|
D|-----------------------------|
A|-0----1----4---3----1----4---| x7
E|-0----1----4---3----1----4---|
A|-0----1----4---3----1----4---|
   *    *
E|-----------------------------|
B|-----------------------------|
G|-----------------------------|
D|-----------------------------| 
A|-1----1----1---1----1----1---|
E|-1----1----1---1----1----1---|
A|-1----1----1---1----1----1---|
   *    *    *   *    *    *
  w/ wah-wah                                      wah-wah off
E|--------------------------|----------------------------|
B|--------------------------|----------------------------|
G|--------------------------|----------------------------|
D|--------------------------|----------------------------|
A|-x--x--x--x--x--x--x-x-x--|-x--x--x-x-x--x-x-x--x-x-x--|
E|--------------------------|----------------------------|
A|--------------------------|----------------------------|

-----------------------------------------------------------------------------------------
|                                    CHORUS 2 (01:53-02:16)                             |
-----------------------------------------------------------------------------------------
                                        same as CHORUS
-----------------------------------------------------------------------------------------
|                                    BRIDGE (02:16-3:03)                                |
-----------------------------------------------------------------------------------------

I.  Guitar 1 (w/ dist)

E|-------------|-------------|-------------|------------------------|
B|-------------|-------------|-------------|------------------------|
G|-------------|-------------|-------------|------------------------|
D|-7-----6-----|-------------|-5-----6-----|-9----------------------|
A|-x-----x-----|-7-----6-----|-x-----x-----|-x----------------------|
E|-5-----4-----|-7-----6-----|-3-----4-----|-7-----6h7p6h7p6h7p6h7--|
A|-------------|-7-----6-----|-------------|------------------------|

E|-------------|-------------|-------------|
B|-------------|-------------|-------------|
G|-------------|-------------|-------------|
D|-7-----6-----|-------------|-5-----6-----|
A|-x-----x-----|-7-----6-----|-x-----x-----|
E|-5-----4-----|-7-----6-----|-3-----4-----|
A|-------------|-7-----6-----|-------------|

    Guitar 2 (w/ dist)

E|-------------|-------------|-------------|------------------------|
B|-------------|-------------|-------------|------------------------|
G|-------------|-------------|-------------|------------------------|
D|-------------|-------------|-7-----8-----|-11---------------------|
A|-------------|-------------|-x-----x-----|-x-----8h9p8h9p8h9p8h9--|
E|-------------|-------------|-5-----6-----|-9----------------------|
A|-------------|-------------|-------------|------------------------|

E|-------------|-------------|-------------|
B|-------------|-------------|-------------|
G|-------------|-------------|-14----15----|
D|-12----13----|-9-----8-----|-x-----x-----|
A|-x-----x-----|-x-----x-----|-12----13----|
E|-10----11----|-7-----6-----|-------------|
A|-------------|-------------|-------------|

II. Guitar 1 and 2 (w/ dist)

E|------------------------|-------------------------|---------------------------|
B|------------------------|-------------------------|---------------------------|
G|------------------------|-------------------------|---------------------------|
D|------------------------|-------------------------|---------------------------|
A|-------------8---7---8--|-7------------8---7---8--|-7--------------8---7---8--|
E|-3--4--3--4--8---7---8--|-7--7-7--7-7--8---7---8--|-7--7-7-7-7-7-7-8---7---8--|
A|-3--4--3--4--8---7---8--|-7--7-7--7-7--8---7---8--|-7--7-7-7-7-7-7-8---7---8--|
   *  *  *  *                  * *  * *                  * * * * * *
E|-------------------------|-------------------------|---------------------------|
B|-------------------------|-------------------------|---------------------------|
G|-------------------------|-10--9-------------------|---------------------------|
D|-------------------------|-x---x-------------------|---------------------------|
A|-7------------8---7---8--|-8---7---8--7------------|-8---7---8--7--------------|
E|-7--7-7--7-7--8---7---8--|---------8--7--7-7--7-7--|-8---7---8--7--7-7-7-7-7-7-|
A|-7--7-7--7-7--8---7---8--|---------8--7--7-7--7-7--|-8---7---8--7--7-7-7-7-7-7-|
      * *  * *                             * *  * *                  * * * * * *
E|-------------------------|-----------------|
B|-------------------------|-----------------|
G|-------------------------|-----------------|
D|-------------------------|-----------------|
A|-8---7---8--7------------|-8---7---8--7s---|
E|-8---7---8--7--7-7--7-7--|-8---7---8--7s---|
A|-8---7---8--7--7-7--7-7--|-8---7---8--7s---|
                 * *  * *

E|------------------------------|--------------------------------|
B|------------------------------|--------------------------------|
G|------------------------------|--------------------------------| 
D|------------------------------|--------------------------------| x3
A|------------------------------|--------------------------------|
E|------------------------------|--------------------------------|
A|-8-8-8-8-8-8-8-8-7--7-7--7-7--|-8-8-8-8-8-8-8-8-7--8-8-8-8-8-8-|
   * * * * * * * * *  * *  * *    * * * * * * * * *  * * * * * *

E|------------------------------|---------------------|
B|------------------------------|---------------------|
G|------------------------------|---------------------|
D|------------------------------|---------------------|
A|------------------------------|-8----7----8---7s----|
E|------------------------------|-8----7----8---7s----|
A|-8-8-8-8-8-8-8-8-7--7-7--7-7--|-8----7----8---7s----|
   * * * * * * * * *  * *  * * 

E|-------------------------|---------------------------|
B|-------------------------|---------------------------|
G|-------------------------|---------------------------|
D|-------------------------|---------------------------|
A|-8---7---8--7------------|-8---7---8--7--------------|
E|-8---7---8--7--7-7--7-7--|-8---7---8--7--7-7-7-7-7-7-|
A|-8---7---8--7--7-7--7-7--|-8---7---8--7--7-7-7-7-7-7-|

E|-------------------------|------------------------|-------------------------|
B|-------------------------|------------------------|-------------------------|
G|-------------------------|------------10--9-------|-------------------------|
D|-------------------------|------------x---x-------|-------------------------|
A|-8---7---8--7------------|-8---7---8--8---7---8---|-7------------8---7---8--|
E|-8---7---8--7--7-7--7-7--|-8---7---8----------8---|-7--7-7--7-7--8---7---8--|
A|-8---7---8--7--7-7--7-7--|-8---7---8----------8---|-7--7-7--7-7--8---7---8--|

E|---------------------------|-------------------------|-------|
B|---------------------------|-------------------------|-------|
G|---------------------------|-------------------------|-------|
D|---------------------------|-------------------------|-------|
A|-7--------------8---7---8--|-7------------8---7---8--|-8s----|
E|-7--7-7-7-7-7-7-8---7---8--|-7--7-7--7-7--8---7---8--|-8s----|
A|-7--7-7-7-7-7-7-8---7---8--|-7--7-7--7-7--8---7---8--|-8s----|

-----------------------------------------------------------------------------------------
|                                    VERSE 3 (03:03-03:25)                              |
-----------------------------------------------------------------------------------------

Guitar 1 and 2 (w/ dist)

E|-----------------------------|
B|-----------------------------|
G|-----------------------------|
D|-----------------------------| x4
A|-----------------------------|
E|-----------------------------|
A|-0----1----4---3----1----4---|

E|-----------------------------|
B|-----------------------------|
G|-----------------------------|
D|-----------------------------|
A|-0----1----4---3----1----4---| x4
E|-0----1----4---3----1----4---|
A|-0----1----4---3----1----4---|

E|-----------------------------|
B|-----------------------------|
G|-----------------------------|
D|-----------------------------| 
A|-1----1----1---1----1----1---|
E|-1----1----1---1----1----1---|
A|-1----1----1---1----1----1---|
   *    *    *   *    *    *

E|---------------------------|
B|---------------------------|
G|---------14--15---14---15--|
D|---------x---x----x----x---| x3
A|---------12--12---12---12--|
E|-0---0---------------------|
A|-0---0---------------------|
   *   * 

-----------------------------------------------------------------------------------------
|                                    CHORUS 3 (03:25-03:51)                             |
-----------------------------------------------------------------------------------------

Guitar 1 and 2 (w/ dist)

E|---------------------|-----------------------|
B|---------------------|-----------------------|
G|---------------------|-----------15--15--15--|
D|---------------------|-----------x---x---x---| x3
A|-------6---------9---|-------10--12--12--12--|
E|-0--0--6---0--0--9---|-0--0--10--------------|
A|-0--0--6---0--0--9---|-0--0--10--------------|
   *  *      *  *        *  *
E|---------------------|-----------------------|
B|---------------------|-----------------------|
G|---------------------|-----------14b---------|
D|---------------------|-----------x-----------| 
A|-------6---------9---|-------10--11b---------|
E|-0--0--6---0--0--9---|-0--0--10--------------|
A|-0--0--6---0--0--9---|-0--0--10--------------|
   *  *      *  *        *  *
E|---------------------|-----------------------|
B|---------------------|-----------------------|
G|---------------------|-----------15--15--15--|
D|---------------------|-----------x---x---x---| x4
A|-------6---------9---|-------10--12--12--12--|
E|-0--0--6---0--0--9---|-0--0--10--------------|
A|-0--0--6---0--0--9---|-0--0--10--------------|
   *  *      *  *        *  *


*****************************************************************************************
*                                     #2 DEAD INSIDE                                    *
*****************************************************************************************

Riff 1 (w/ dist)

E|------------------------------|-----------------------------|
B|------------------------------|-----------------------------|
G|------------------------------|-----------------------------|
D|-4----------------------------|-----------------------------|
A|-3----------------------------|-----------------------------|
E|------------------------------|-----------------------------|
A|------3-3-3-3-3----3-3-3-3-3--|----3-3-3-3-3----3-3-3-3-3---|
        * * * * *    * * * * *       * * * * *    * * * * *
E|------------------------------|-----------------------------|
B|------------------------------|-----------------------------|
G|------------------------------|-----------------------------|
D|------------------------------|-----------------------------|
A|------------------------------|-----------------------------|
E|------------------------------|-----------------------------|
A|-2----3-3-3-3-3----3-3-3-3-3--|----3-3-3-3-3----3-3-3-3-3---|
        * * * * *    * * * * *       * * * * *    * * * * *
E|------------------------------|-----------------------------|
B|------------------------------|-----------------------------|
G|------------------------------|-----------------------------|
D|-6s4--------------------------|-----------------------------|
A|-5s3--------------------------|-----------------------------|
E|------------------------------|-----------------------------|
A|------3-3-3-3-3----3-3-3-3-3--|----3-3-3-3-3----3-3-3-3-3---|
        * * * * *    * * * * *       * * * * *    * * * * *
E|------------------------------|-----------------------------|--------|
B|------------------------------|-----------------------------|--------|
G|------------------------------|-----------------------------|--------|
D|------------------------------|-----------------------------|-4------|
A|------------------------------|-----------------------------|-3------|
E|------------------------------|-----------------------------|--------|
A|-2----3-3-3-3-3----3-3-3-3-3--|----3-3-3-3-3----3-3-3-3-3---|--------|
        * * * * *    * * * * *       * * * * *    * * * * *

Riff 2a (w/ dist)

E|---------------------------------------|
B|---------------------------------------|
G|---------------------------------------|
D|---------------------------------------|
A|---------------------------------------|
E|---------------------------------------|
A|-0--1--0---0--1-`4`---0--0---0--1--0---|

Riff 2b (w/ dist)

E|----------------------------------------|
B|----------------------------------------|
G|----------------------------------------|
D|----------------------------------------|
A|---------------------1s3--3--3---4--4---|
E|---------------------1s3--3--3---4--4---|
A|-0--1--0---0--1-`4`--1s3--3--3---4--4---|

Riff 3 (w/ dist)

E|-----------|-|-|-|-|-|-|-|--------------------------|
B|-----------|-|-|-|-|-|-|-|--------------------------|
G|-----------|-|-|-|-|-|-|-|--------------------------|
D|-----------|-|-|-|-|-|-|-|--------------------------|
A|-----------|-|-|-|-|-|-|-|--------------------------|
E|-0---------|-|-|-|-|-|-|-|--------------------------|
A|-0---------|-|-|-|-|-|-|-|-12s1-12s1-12s1-12s1-12s1-|
   *        empty bars here 

Riff 4 (w/ dist)

E|------------------------------------|------------------------------------|
B|------------------------------------|------------------------------------|
G|-9s10-9---9s10-9----10s9---9s12-12--|-9s10-9---9s10-7----10s9---9s12-12--|
D|-x-x--x---x-x--x----x--x---x-x--x---|-x-x--x---x-x--x----x--x---x-x--x---|
A|-7s8--7---7s8--7----8-s7---7s10-10--|-7s8--7---7s8--5----8-s7---7s10-10--|
E|------------------------------------|------------------------------------|
A|------------------------------------|------------------------------------|

E|------------------------------------|--------------------------------------|
B|------------------------------------|--------------------------------------|
G|-9s10-9---9s10-9----10s9---9s12-12--|-9s10-9---9s10-9---9s12-12-12--14-14--|
D|-x-x--x---x-x--x----x--x---x-x--x---|-x-x--x---x-x--x---x-x--x--x---x--x---|
A|-7s8--7---7s8--7----8-s7---7s10-10--|-7s8--7---7s8--7---7s10-10-10--12-12--|
E|------------------------------------|--------------------------------------|
A|------------------------------------|--------------------------------------|

Fill 1 (w/ dist)

E|---------------------------|
B|---------------------------|
G|---------------------------|
D|---------------------------|
A|---------------------------|
E|-0----0----0----0--0-------|
A|-0----0----0----0--0-------|
   *    *    *    *  *

Riff 5a (w/ dist)

E|--------------------------------|
B|--------------------------------|
G|--------------------------------|
D|--------------------------------|
A|-0h5--5-------5---6----2----1---|
E|-0h5--5--5+b--5---6----2----1---|
A|-0h5--5-------5---6----2----1---|
     (pinch note: Eb)

Riff 5b

E|--------------------------------|
B|--------------------------------|
G|--------------------------------|
D|--------------------------------|
A|-0h5--5-------5---6----2----1---|
E|-0h5--5--5+b--5---6----2----1---|
A|-0h5--5-------5---6----2----1---|
     (pinch note: G)

Riff 5c (w/ dist)

E|----------------------------------|
B|----------------------------------|
G|----------------------------------|
D|----------------------------------|
A|-0h5--5-------5-------------------|
E|-0h5--5--5+b--5---6-6-6-2-2-2-1-1-|
A|-0h5--5-------5---6-6-6-2-2-2-1-1-|
   (pinch note: G)  * * * * * * * *

Riff 5d (w/ dist)

E|--------------------------------|
B|--------------------------------|
G|--------------------------------|
D|--------------------------------|
A|-0h5--5-------5---6----2----1---|
E|-0h5--5--5+b--5---6----2----1---|
A|-0h5--5-------5---6----2----1---|
 (pinch note: G)    *    *    *

Riff 6 (w/ dist)

E|---------------------------------------------|
B|---------------------------------------------|
G|---------------------------------------------|
D|---------------------------------------------|
A|---------------------------------------------|
E|---------------------------------------------|
A|-1-1-1-1-1-1-1-1-0-----1-1-1-1-1-1-1-1-0-----|  
   * * * * * * * * *     * * * * * * * * *

Riff 7 (w/ dist)

E|-----------------------------|
B|-----------------------------|
G|-----------------------------|
D|-----------------------------|
A|-----------------------------|
E|-0-0-0-----0-0-0-----0-0-----|
A|-0-0-0-----0-0-0-----0-0-----|
   * * *     * * *     * *

Riff 8a (w/ dist)

E|-----------------------------------|
B|-----------------------------------|
G|-----------------------------------|
D|-----------------------------------|
A|-----------------------------------|
E|-----------------------------------|
A|-0h1--0-0--0---0----0-0--`4`--0-0--|
        * *           * *       * *

Riff 8b (w/ dist)

E|---------------------------------|
B|---------------------------------|
G|---------------------------------|
D|---------------------------------|
A|---------------0---1----3s4--4---|
E|---------------0---1----3s4--4---|
A|-0h1--0-0--0---0---1----3s4--4---|
        * *

Fill 2 (w/ dist)

E|---------|
B|---------|
G|---------|
D|---------|
A|---------|
E|---------|
A|-`4`-----|

Riff 9 (w/ dist) (in live with dist and phaser)

E|-------------------------------------|
B|-------------------------------------|
G|-------10-------9--------10-------9--|
D|-------x--------x--------x--------x--|
A|-------8--------7--------8--------7--|
E|-0-0-0----0-0-0----0-0-0----0-0-0----|
A|-0-0-0----0-0-0----0-0-0----0-0-0----|
   * * *    * * *    * * *    * * * 
E|----------------------------------------------|-------------------------------------|
B|----------------------------------------------|-------------------------------------|
G|-------10-------9--------12-10-12-------------|-------10-------9--------10-------9--|
D|-------x--------x--------x--x--x--------------|-------x--------x--------x--------x--|
A|-------8--------7--------10-8--10-8h10p8h10---|-------8--------7--------8--------7--|
E|-0-0-0----0-0-0----0-0-0----------------------|-0-0-0----0-0-0----0-0-0----0-0-0----|
A|-0-0-0----0-0-0----0-0-0----------------------|-0-0-0----0-0-0----0-0-0----0-0-0----|
   * * *    * * *    * * *                        * * *    * * *    * * *    * * *
E|----------------------------------------------|---------------------------------------|
B|----------------------------------------------|---------------------------------------|
G|-------10-------9--------12-10-12-------------|-------12-------14--------15--------14-|
D|-------x--------x--------x--x--x--------------|-------x--------x---------x---------x--|
A|-------8--------7--------10-8--10-8h10p8h10---|-------10-------12--------13--------12-|
E|-0-0-0----0-0-0----0-0-0----------------------|-0-0-0----0-0-0-----0-0-0-----0-0-0----|
A|-0-0-0----0-0-0----0-0-0----------------------|-0-0-0----0-0-0-----0-0-0-----0-0-0----|
   * * *    * * *    * * *                        * * *    * * *     * * *     * * * 
E|----------------------------------------------|-------------------------------------|
B|----------------------------------------------|-------------------------------------|
G|-------12-------14-------12-10-12-------------|-------12-------14-------15-------17-|
D|-------x--------x--------x--x--x--------------|-------x--------x--------x--------x--|
A|-------10-------12-------10-8--10-8h10p8h10---|-------10-------12-------13-------15-|
E|-0-0-0----0-0-0----0-0-0----------------------|-0-0-0----0-0-0----0-0-0----0-0-0----|
A|-0-0-0----0-0-0----0-0-0----------------------|-0-0-0----0-0-0----0-0-0----0-0-0----|
   * * *    * * *    * * *                        * * *    * * *    * * *    * * *
E|------------------------------------------------|-------------|
B|------------------------------------------------|-------------|
G|-------15--------14--------12-10-12-------------|-------------|
D|-------x---------x---------x--x--x--------------|-------------|
A|-------13--------12--------10-8--10-8h10p8h10---|-------------|
E|-0-0-0-----0-0-0-----0-0-0----------------------|-0-----------|
A|-0-0-0-----0-0-0-----0-0-0----------------------|-0-----------|
   * * *     * * *     * * *                        *

SONG STRUCTURE
INTRO
Riff 1 x1
Riff 2a x3
Riff 2b x1

VERSE
Riff 3 x1

CHORUS
Riff 2a x3
Riff 2b x1
Riff 4 x1

VERSE 2 same as VERSE

CHORUS 2 same as CHORUS

BRIDGE
Fill 1
Riff 5a x1
Riff 5b x2
Riff 5c x1
Riff 5a x1
Riff 5b x2
Riff 5c x1
Riff 6 x5
Riff 7 x9
Riff 6 x5
Riff 5d x1

CHORUS 3
Riff 8a x3
Riff 8b x1
Riff 8a x3
Riff 8b x1
Fill 2

OUTRO
Riff 9 x1


*****************************************************************************************
*                                       #3 SEVERED                                      *
*****************************************************************************************

-----------------------------------------------------------------------------------------
|                                    INTRO (00:00-00:22)                                |
-----------------------------------------------------------------------------------------

Guitar 1 and 2 (w/ dist)

E|-----------------------------|---------------------------|
B|-----------------------------|---------------------------|
G|-----------------------------|---------------------------|
D|-----------------------------|---------------------------|
A|-----------------------------|---------------------------|
E|-----------------------------|---------------------------|
A|-4-4-4-4-4-4-4-4-3---4-4-4-4-|-4-4-4-4-3---3-3-3--3-3-3--|
   * * * * * * * * *   * * * *   * * * * *   * * *  * * *
E|-----------------------------|---------------------------|
B|-----------------------------|---------------------------|
G|-----------------------------|---------------------------|
D|-----------------------------|---------------------------|
A|-----------------------------|---------------------------|
E|-----------------------------|---------------------------|
A|-4-4-4-4-4-4-4-4-3---4-4-4-4-|-4-4-4-4-3---6-6-3--6-6-3--|
   * * * * * * * * *   * * * *   * * * * *   * * *  * * * 
E|----------------------------|----------------------------|
B|----------------------------|----------------------------|
G|----------------------------|----------------------------|
D|----------------------------|----------------------------|
A|----------------------------|----------------------------|
E|----------------------------|----------------------------|
A|-6-6-3--4-4-4-4-4-4-4-4-3---|-4-4-4-4-4-4-4-4-3---3-3-3--|
   * * *  * * * * * * * * *     * * * * * * * * *   * * *
E|----------------------------|----------------------------|---------------|
B|----------------------------|----------------------------|---------------|
G|----------------------------|----------------------------|---------------|
D|----------------------------|----------------------------|---------------|
A|----------------------------|----------------------------|---------------|
E|----------------------------|----------------------------|---------------|
A|-3-3-3--4-4-4-4-4-4-4-4-3---|-4-4-4-4-4-4-4-4-3---6-6-3--|-6-6-3--6-6-3--|
   * * *  * * * * * * * * *     * * * * * * * * *   * * *    * * *  * * * 
E|-----------------------------|---------------------------|
B|-----------------------------|---------------------------|
G|-----------------------------|---------------------------|
D|-----------------------------|---------------------------|
A|-----------------------------|---------------------------|
E|-----------------------------|---------------------------|
A|-0-0-0-0-0-0-0-0-0---0-0-0-0-|-0-0-0-0-0---3-3-3--3-3-3--|
   * * * * * * * * *   * * * *   * * * * *   * * *  * * *
E|-----------------------------|---------------------------|
B|-----------------------------|---------------------------|
G|-----------------------------|---------------------------|
D|-----------------------------|---------------------------|
A|-----------------------------|---------------------------|
E|-----------------------------|---------------------------|
A|-0-0-0-0-0-0-0-0-0---0-0-0-0-|-0-0-0-0-0---6-6-3--6-6-3--|
   * * * * * * * * *   * * * *   * * * * *   * * *  * * *
E|----------------------------|----------------------------|
B|----------------------------|----------------------------|
G|----------------------------|----------------------------|
D|----------------------------|----------------------------|
A|----------------------------|----------------------------|
E|----------------------------|----------------------------|
A|-6-6-3--0-0-0-0-0-0-0-0-0---|-0-0-0-0-0-0-0-0-0---3-3-3--|
   * * *  * * * * * * * * *     * * * * * * * * *   * * * 
E|----------------------------|----------------------------|---------------|
B|----------------------------|----------------------------|---------------|
G|----------------------------|----------------------------|---------------|
D|----------------------------|----------------------------|---------------|
A|----------------------------|----------------------------|---------------|
E|----------------------------|----------------------------|---------------|
A|-3-3-3--0-0-0-0-0-0-0-0-0---|-0-0-0-0-0-0-0-0-0---6-6-3--|-6-6-3--6-6-3--|
   * * *  * * * * * * * * *     * * * * * * * * *   * * *    * * *  * * *

-----------------------------------------------------------------------------------------
|                                    VERSE (00:22-00:55)                                |
-----------------------------------------------------------------------------------------

I.

  Guitar 1 (w/ dist)

 E|-------------------------|
 B|-------------------------|
 G|-------------------------|
 D|-------------------------| x3
 A|-------------------------|
 E|-------------------------|
 A|-0--1--0--1--4--1--0--1--|

II.
 
 Guitar 1 and 2 (w/ dist)

 E|-------------|
 B|-------------|
 G|-------------|
 D|-------------| 
 A|-------------|
 E|-xxxxxxxxxx--|
 A|-xxxxxxxxxx--|
   pick scratch

 E|-------------------------|
 B|-------------------------|
 G|-------------------------|
 D|-------------------------| x3
 A|-------------------------|
 E|-------------------------|
 A|-0--1--0--1--4--1--0--1--|

 E|-------------------------|
 B|-------------------------|
 G|-------------------------|
 D|-------------------------|
 A|-------------------------|
 E|-------------3~~~~~~~~~~~|
 A|-0--1--0--1--------------|
                + (pinch note: G)

 E|-------------------------|
 B|-------------------------|
 G|-------------------------|
 D|-------------------------| x4
 A|-------------------------|
 E|-------------------------|
 A|-0--1--0--1--4--1--0--1--|

 E|-------------------------|
 B|-------------------------|
 G|-------------------------|
 D|-------------------------|
 A|-------------------------|
 E|-0---0----0----0----0----|
 A|-0---0----0----0----0----|
    *   *    *    *    *
 E|-------------------------|
 B|-------------------------|
 G|-------------------------|
 D|-------------------------| x3
 A|-------------------------|
 E|-------------------------|
 A|-0--1--0--1--4--1--0--1--|

 E|-------------------------|
 B|-------------------------|
 G|-------------------------|
 D|-------------------------|
 A|-------------------------|
 E|-------------0--1--------|
 A|-0--1--0--1--0--1--------|
                *
 E|-------------------------|
 B|-------------------------|
 G|-------------------------|
 D|-------------------------| x4
 A|-------------------------|
 E|-------------------------|
 A|-0--1--0--1--4--1--0--1--|

 E|-------------------------------|----------------------|
 B|-------------------------------|----------------------|
 G|-------------------------------|----------------------|
 D|-------------------------------|----------------------| x2
 A|-------------------------------|----------------------|
 E|-------------------------------|----4---4---4--4------|
 A|-4-4-4-4-4------4-4-4-4-4------|----4---4---4--4------|
    * * * * *      * * * * *           *   *   *  *

-----------------------------------------------------------------------------------------
|                                   CHORUS (00:55-01:05)                                |
-----------------------------------------------------------------------------------------

Guitar 1 and 2 (w/ dist)

E|-------------------------|--------------------|
B|-------------------------|--------------------|
G|-------------------------|--------------------|
D|-------------------------|--------------------| x4
A|-------------------------|--------------------|
E|-------------------------|---0---0----0--0----|
A|-0-0-0-0-0---0-0-0-0-0---|---0---0----0--0----|
   * * * * *   * * * * *       *   *    *  *

-----------------------------------------------------------------------------------------
|                                  VERSE 2 (01:05-01:29)                                |
-----------------------------------------------------------------------------------------

I. 
 
 Guitar 1 (w/ dist)

 E|-------------------------|
 B|-------------------------|
 G|-------------------------|
 D|-------------------------|
 A|-------------------------|
 E|-------------------------|
 A|-0--1--0--1--4--1--0--1--|

II.

 Guitar 1 and 2 (w/ dist)

 E|-------------------------|
 B|-------------------------|
 G|-------------------------|
 D|-------------------------| x3
 A|-------------------------|
 E|-------------------------|
 A|-0--1--0--1--4--1--0--1--|

 E|-------------------------|
 B|-------------------------|
 G|-------------------------|
 D|-------------------------|
 A|-------------------------|
 E|-------------3~~~~~~~~~~~|
 A|-0--1--0--1--------------|
                + (pinch note: G)

 E|-------------------------|
 B|-------------------------|
 G|-------------------------|
 D|-------------------------| x4
 A|-------------------------|
 E|-------------------------|
 A|-0--1--0--1--4--1--0--1--|

 E|-------------------|
 B|-------------------|
 G|-------------------|
 D|-------------------|
 A|-------------------|
 E|-0--0---0---0---0--|
 A|-0--0---0---0---0--|
    *  *   *   *   *
 E|-------------------------|
 B|-------------------------|
 G|-------------------------|
 D|-------------------------| x3
 A|-------------------------|
 E|-------------------------|
 A|-0--1--0--1--4--1--0--1--|

 E|-------------------------|
 B|-------------------------|
 G|-------------------------|
 D|-------------------------|
 A|-------------------------|
 E|-------------0--1--------|
 A|-0--1--0--1--0--1--------|
                *
 E|-------------------------|
 B|-------------------------|
 G|-------------------------|
 D|-------------------------| x4
 A|-------------------------|
 E|-------------------------|
 A|-0--1--0--1--4--1--0--1--|
 
-----------------------------------------------------------------------------------------
|                                    CHORUS 2 (01:29-01:49)                             |
-----------------------------------------------------------------------------------------

Guitar 1 and 2 (w/ dist)

E|-------------------------|--------------------|
B|-------------------------|--------------------|
G|-------------------------|--------------------|
D|-------------------------|--------------------| x4
A|-------------------------|--------------------|
E|-------------------------|---0---0----0--0----|
A|-0-0-0-0-0---0-0-0-0-0---|---0---0----0--0----|
   * * * * *   * * * * *       *   *    *  *
E|-----------------------------|--------------------|
B|-----------------------------|--------------------|
G|-----------------------------|--------------------|
D|-7-7-7-7-7-7-7-7-------------|--------------------| 
A|-x-x-x-x-x-x-x-x-------------|--------------------|
E|-5-5-5-5-5-5-5-5-------------|---0---0----0--0----|
A|-----------------0-0-0-0-0---|---0---0----0--0----|
                   * * * * *       *   *    *  *
E|-------------------------|--------------------|
B|-------------------------|--------------------|
G|-------------------------|--------------------|
D|-------------------------|--------------------| x3
A|-------------------------|--------------------|
E|-------------------------|---0---0----0--0----|
A|-0-0-0-0-0---0-0-0-0-0---|---0---0----0--0----|
   * * * * *   * * * * *       *   *    *  *

-----------------------------------------------------------------------------------------
|                                    BRIDGE (01:49-2:18)                                |
-----------------------------------------------------------------------------------------

Guitar 1 and 2 (w/ dist)

E|---------------------------------|
B|---------------------------------|
G|---------------------------------|
D|-7-7-7-7-7-7-7-7-7-7-7-7-7-7-7-7-| x16 (usually random jamming here,
A|-x-x-x-x-x-x-x-x-x-x-x-x-x-x-x-x-|       at least in live shows)
E|-5-5-5-5-5-5-5-5-5-5-5-5-5-5-5-5-|
A|---------------------------------|

-----------------------------------------------------------------------------------------
|                                     OUTRO (2:18-3:13)                                 |
-----------------------------------------------------------------------------------------

E|-------------------------|--------------------|
B|-------------------------|--------------------|
G|-------------------------|--------------------|
D|-------------------------|--------------------| x4
A|-------------------------|--------------------|
E|-0-0-0-0-0---0-0-0-0-0---|---0---0----0--0----|
A|-0-0-0-0-0---0-0-0-0-0---|---0---0----0--0----|
   * * * * *   * * * * *       *   *    *  *
E|-----------------------------|--------------------|
B|-----------------------------|--------------------|
G|-----------------------------|--------------------|
D|-7-7-7-7-7-7-7-7-------------|--------------------| 
A|-x-x-x-x-x-x-x-x-------------|--------------------|
E|-5-5-5-5-5-5-5-5-0-0-0-0-0---|---0---0----0--0----|
A|-----------------0-0-0-0-0---|---0---0----0--0----|
                   * * * * *       *   *    *  *
E|-------------------------|--------------------|
B|-------------------------|--------------------|
G|-------------------------|--------------------|
D|-------------------------|--------------------| x3
A|-------------------------|--------------------|
E|-0-0-0-0-0---0-0-0-0-0---|---0---0----0--0----|
A|-0-0-0-0-0---0-0-0-0-0---|---0---0----0--0----|
   * * * * *   * * * * *       *   *    *  *

4 bars empty

E|-------------------|--------------------|
B|-------------------|--------------------|
G|-------------------|--------------------|
D|-------------------|--------------------| 
A|-------------------|--------------------|
E|-------0-0-0-0-0---|---0---0----0--0----|
A|-------0-0-0-0-0---|---0---0----0--0----|
         * * * * *       *   *    *  *
E|-------------------------|--------------------|
B|-------------------------|--------------------|
G|-------------------------|--------------------|
D|-------------------------|--------------------| x3
A|-------------------------|--------------------|
E|-0-0-0-0-0---0-0-0-0-0---|---0---0----0--0----|
A|-0-0-0-0-0---0-0-0-0-0---|---0---0----0--0----|
   * * * * *   * * * * *       *   *    *  *


*****************************************************************************************
*                                       #4 LUMPS                                        *
*****************************************************************************************

Riff 1a (w/ dist)

E|---------------------------|-----------------------------|
B|---------------------------|-----------------------------|
G|---------------------------|-----------------------------|
D|---------------------------|-----------------------------|
A|---------------------------|-----------------------------|
E|---------------------------|-----------------------------|
A|-2-2-2-2--2--2--2--2--2--2-|--2--1-1-1-1-2--2--1-1-1-1-2-|
   * * * *  *  *  *  *  *  *    *  * * * * *  *  * * * * *

Riff 1b (w/ dist)

E|--------------------------|------------------------------|
B|--------------------------|------------------------------|
G|--------------------------|------------------------------|
D|--------------------------|------------------------------|
A|--------------------------|------------------------------|
E|--------------------------|------------------------------|
A|-2-2--2--2--2--2--2--2--2-|-2-2--1-1-1-1-2--2--1-1-1-1-2-|
   * *  *  *  *  *  *  *  *   * *  * * * * *  *  * * * * *

Riff 1c (w/ dist)

E|-------------------------|-----------------------------|
B|-------------------------|-----------------------------|
G|-------------------------|-----------------------------|
D|-------------------------|-----------------------------|
A|-------------------------|-----------------------------|
E|-------------2--------2--|-----------------------------|
A|-2--2--2--2--2--2--2--2--|-2--2--1-1-1-1-2--2--1-1-1-1-|
   *  *  *  *     *  *       *  *  * * * * *  *  * * * *

Riff 2a (w/ dist)

E|--------------------------|------------------------|
B|--------------------------|------------------------|
G|--------------------------|------------------------|
D|--------------------------|-------8--8-------8--8--|
A|--------------------------|-------7--7-------7--7--|
E|--------------------------|-------6--6-------6--6--|
A|-0--0--0--13--0--0--0--1--|-0--0--------0-0--------|
   *  *  *      *  *  *       *  *        * * 

Riff 2b (w/ dist)

E|--------------------------|-------------------------|
B|--------------------------|-------------------------|
G|--------------------------|-------------------------|
D|--------------------------|-------8--8--8--8--8--8--|
A|--------------------------|-------7--7--7--7--7--7--|
E|--------------------------|-------6--6--6--6--6--6--|
A|-0--0--0--13--0--0--0--1--|-0--0--------------------|
   *  *  *      *  *  *       *  *

Riff 2c (w/ dist)

E|--------------------------|-------------------|
B|--------------------------|-------------------|
G|--------------------------|-------------------|
D|--------------------------|-------------------|
A|--------------------------|-------------------|
E|--------------------------|-------6b-----6b---|
A|-0--0--0--13--0--0--0--1--|-0--0------0-------|
   *  *  *      *  *  *       *  *      *

Riff 2d (w/ dist)

E|--------------------------|----------------------|
B|--------------------------|----------------------|
G|--------------------------|----------------------|
D|--------------------------|----------------------|
A|--------------------------|----------------------|
E|--------------------------|-------6brbrb---------|
A|-0--0--0--13--0--0--0--1--|-0--0-----------------|
   *  *  *      *  *  *       *  *

Riff 3 (w/ dist and wah-wah)

E|----------------------------|--------------------------|
B|-15--0--15--0--15--0--0--14-|-0--0--14--0--14--0--0--0-|
G|----------------------------|--------------------------|
D|----------------------------|--------------------------|
A|----------------------------|--------------------------|
E|----------------------------|--------------------------|
A|----------------------------|--------------------------|

Riff 4a (w/ dist)

E|---------------------------------|------------------------|
B|---------------------------------|------------------------|
G|---------------------------------|------------------------|
D|---------------------------------|------------------------|
A|---------------------------------|------------------------|
E|---------------------------------|------------------------|
A|-0---2---3---2---0---2---0---2---|-3---2---0---2-----3----|

E|---------------------------------|------------------------|
B|---------------------------------|------------------------|
G|---------------------------------|------------------------|
D|---------------------------------|------------------------|
A|---------------------------------|-------------2-----3----|
E|---------------------------------|-------------2-----3----|
A|-0---2---3---2---0---2---0---2---|-3---2---0---2-----3----|

Riff 4b (w/ dist)

E|---------------------------------|------------------------|
B|---------------------------------|------------------------|
G|---------------------------------|------------------------|
D|---------------------------------|------------------------|
A|-0---2---3---2---0---2---0---2---|-3---2---0---2-----3----|
E|-0---2---3---2---0---2---0---2---|-3---2---0---2-----3----|
A|-0---2---3---2---0---2---0---2---|-3---2---0---2-----3----|
   *   *   *   *   *   *   *   *     *   *   *

Riff 4c (w/ dist)

E|---------------------------------|------------------------|
B|---------------------------------|------------------------|
G|---------------------------------|------------------------|
D|---------------------------------|------------------------|
A|-----------------0---2---0---2---|-3---2---0---2-----3----|
E|-----------------0---2---0---2---|-3---2---0---2-----3----|
A|-0---2---3---2---0---2---0---2---|-3---2---0---2-----3----|
                   *   *   *   *     *   *   * 

Riff 4d (w/ dist and wah-wah)

E|---------------------------------|---------------------------------|
B|---------------------------------|---------------------------------|
G|---------------------------------|---------------------------------|
D|---------------------------------|---------------------------------|
A|-0-0-2-2-3-3-2-2-0-0-2-2-0-0-2-2-|-3-3-2-2-0-0-2-2-2-2-2-2-3-3-3-3-|
E|---------------------------------|---------------------------------|
A|---------------------------------|---------------------------------|

Riff 5 (w/ dist and octaver (digitech whammy))

E|------------------------|-----------------------|
B|------------------------|-----------------------|
G|------------------------|-----------------------|
D|------------------------|-----------------7/////|
A|-0---0----0----0----0---|---0----0---0----6/////|
E|-0---0----0----0----0---|---0----0---0----5/////|
A|-0---0----0----0----0---|---0----0---0----------|
   *   *    *    *    *       *    *   *
E|----------------------|-----------------------------|
B|----------------------|-----------------------------|
G|----------------------|-----------------------------|
D|--------------------7/|/7//7//7---------7///\\7////-|
A|-0---0----0----0----6/|/6//6//6-----0---6///\\6////-|
E|-0---0----0----0----5/|/5//5//5-----0---5///\\5////-|
A|-0---0----0----0------|-------------0---------------|
   *   *    *    *                    *

Fill 1 (w/ dist and octaver (digitech whammy))

E|-19/////|////\|\19/////|/////|/////|
B|--------|-----|--------|-----|-----|
G|--------|-----|--------|-----|-----|
D|--------|-----|--------|-----|-----|
A|--------|-----|--------|-----|-----|
E|--------|-----|--------|-----|-----|
A|--------|-----|--------|-----|-----|
   
Fill 2 (w/ dist)

E|--------|--------|--------|--------|
B|--------|--------|--------|--------|
G|--------|--------|--------|--------|
D|-9------|--------|--------|--------|
A|-x------|--------|--------|--------|
E|-7------|--------|--------|--------|
A|--------|--------|--------|--------|

Fill 3 (w/ dist)

E|--------|--------|--------|--------|
B|--------|--------|--------|--------|
G|--------|--------|--------|--------|
D|--------|--------|--------|--------|
A|-0------|--------|--------|--------|
E|-0------|--------|--------|--------|
A|-0------|--------|--------|--------|

Fill 4 (w/ dist)

E|--------|--------|
B|--------|--------|
G|--------|--------|
D|-7------|--------|
A|-6------|--------|
E|-5------|--------|
A|--------|--------|

SONG STRUCTURE
INTRO
Riff 1a x1
Riff 1b x3
Riff 1c + Fill 1 x4

VERSE
Riff 2a x3
Riff 2b x1
Riff 2c x3
Riff 2d x1

PRE-CHORUS
Fill 2 + Riff 3 x2
Riff 4a + Riff 3 x2

CHORUS
Riff 4b x4
Riff 4c x4

VERSE 2 same as VERSE
PRE-CHORUS 2 same as PRE-CHORUS
CHORUS 2 same as CHORUS

BRIDGE
Fill 3
Riff 4d x6
Riff 1a x1
Riff 1b x3

CHORUS 3
Riff 4b x4
Riff 4a 1/2 x4 (first 2 bars)

OUTRO
Fill 4
Riff 5 x8


*****************************************************************************************
*                                 #5 PASS OUT OF EXISTENCE                              *
*****************************************************************************************

-----------------------------------------------------------------------------------------
|                                    INTRO (00:00-00:33)                                |
-----------------------------------------------------------------------------------------

Guitars 1 and 2 (w/ dist)

E|--------|
B|--------|
G|--------|
D|--------|
A|--------|
E|--------|
A|-1s6s1--|
   slide here
                                      -------------|
E|--------------------|---------------------|      |
B|--------------------|---------------------|      |
G|--------------------|---------------------|      |
D|--------------------|---------------------| x3   |
A|--------------------|---------------------|      |
E|--------------------|---------------------|      |
A|-0---2--1--0-s11--0-|-2--1--0-s11--0--1---|      |
                                                   | x2
E|------------------|-----------------------|      |
B|------------------|-----------------------|      |
G|------------------|-----------------------|      |
D|------------------|-----------------------|      |
A|------------------|-----------------------|      |
E|------------------|-----------0--1--0--1--|      |
A|-0---6--5--2~~~~0-|-5--4--1~~~0--1--0--1--|      |
                                *  *  *  * --------|

and then 8 bars empty

-----------------------------------------------------------------------------------------
|                                   VERSE (00:33-00:54)                                 |
-----------------------------------------------------------------------------------------

Guitars 1 and 2 (w/ dist)

E|----------------------|-------------------------|
B|----------------------|-------------------------|
G|----------------------|-------------------------|
D|----------------------|-------------------------| x3
A|----------------------|-------------------------|
E|-----------------0--0-|-0--0--0--0--0--0--------|
A|-0--h1-p0-h1--0--0--0-|-0--0--0--0--0--0--4--4--|
                   *  *   *  *  *  *  *  *
E|----------------------|-------------------------|
B|----------------------|-------------------------|
G|----------------------|-------------------------|
D|----------------------|-------------------------|
A|----------------------|-------------------------|
E|-----------------0--0-|-0-----------------------|
A|-0--h1-p0-h1--0--0--0-|-0--3--3--3--3--3--4--4--|
                   *  *   *
E|----------------------|-------------------------|
B|----------------------|-------------------------|
G|----------------------|-------------------------|
D|----------------------|-------------------------| x3
A|----------------------|-------------------------|
E|-----------------0--0-|-0--0--0--0--0--0--------|
A|-0--h1-p0-h1--0--0--0-|-0--0--0--0--0--0--4--4--|
                   *  *   *  *  *  *  *  *
E|----------------------|-------------------------|
B|----------------------|-------------------------|
G|----------------------|-------------------------|
D|----------------------|-------------------------|
A|----------------------|-------------------------|
E|----------------------|-------------------------|
A|-0--h1-p0-h1--0--1--1-|-1--1--3--3--3--3--4--4--|
               
-----------------------------------------------------------------------------------------
|                                   CHORUS (00:54-01:15)                                |
-----------------------------------------------------------------------------------------

Guitars 1 and 2 (w/ dist)

E|--------------------|---------------------|
B|--------------------|---------------------|
G|--------------------|---------------------|
D|--------------------|---------------------|
A|--------------------|---------------------|
E|--------------------|---------------------|
A|-0---2--1--0-s11--0-|-2--1--0-s11--0--1---|

E|--------------------|---------------------|
B|--------------------|---------------------|
G|--------------------|---------------------|
D|--------------------|---------------------|
A|--------------------|-----------------1---|
E|--------------------|--------------0--1---|
A|-0---2--1--0-s11--0-|-2--1--0-s11--0--1---|
                                     *
E|--------------------|---------------------|
B|--------------------|---------------------|
G|--------------------|---------------------|
D|--------------------|---------------------|
A|--------------------|---------------------|
E|--------------------|---------------------|
A|-0---2--1--0-s11--0-|-2--1--0-s11--0--1---|

E|------------------|-----------------------|
B|------------------|-----------------------|
G|------------------|-----------------------|
D|------------------|-----------------------|
A|------------------|-----------------------|
E|------------------|-----------0--1--0--1--|
A|-0---6--5--2~~~~0-|-5--4--1~~~0--1--0--1--|
                                *  *  *  * 
E|--------------------|---------------------|
B|--------------------|---------------------|
G|--------------------|---------------------|
D|--------------------|---------------------| x3
A|--------------------|---------------------|
E|--------------------|---------------------|
A|-0---2--1--0-s11--0-|-2--1--0-s11--0--1---|
 
E|------------------|-----------------------|
B|------------------|-----------------------|
G|------------------|-----------------------|
D|------------------|-----------------------|
A|------------------|-----------------------|
E|------------------|-----------0--1--0--1--|
A|-0---6--5--2~~~~0-|-5--4--1~~~0--1--0--1--|
                                *  *  *  * 

-----------------------------------------------------------------------------------------
|                                   INTERLUDE (01:15-01:31)                             |
-----------------------------------------------------------------------------------------

Guitars 1 and 2 (w/ dist)

E|------------------------|---------------------------|
B|------------------------|---------------------------|
G|------------------------|---------------------------|
D|------------------------|---------------------------| x2
A|------------------------|---------------------------|
E|------------------------|---------------------------|
A|-0---0--0-0-0--0--1-----|-0--0-0-0--0--1------0-h1--|
       *  * * *  *          *  * * *  *
E|-------------------------|--------------------------|
B|-------------------------|--------------------------|
G|-------------------------|--------------------------|
D|-------------------------|--------------------------|
A|-------------------------|--------------------------|
E|-------------------------|-----------------1--1--1--|
A|-0---6-6-5-5-0-0-2~~~2-2-|-2-2-1~~~1-1-1-1-1--1--1--|
       * * * * * *     * *   * *     * * * * *  *  *
E|------------------------|---------------------------|
B|------------------------|---------------------------|
G|------------------------|---------------------------|
D|------------------------|---------------------------|
A|------------------------|---------------------------|
E|------------------------|---------------------------|
A|-0---0--0-0-0--0--1-----|-0--0-0-0--0--1------0-h1--|
       *  * * *  *          *  * * *  *
E|------------------------|---------------------------|
B|------------------------|---------------------------|
G|------------------------|---------------------------|
D|------------------------|---------------------------|
A|------------------------|---------------------------|
E|------------------------|---------------------------|
A|-0---0--0-0-0--0--1-----|-0--0-0-0--0--1------3~~~~~|
       *  * * *  *          *  * * *  *         +
E|-------------------------|--------------------------|
B|-------------------------|--------------------------|
G|-------------------------|--------------------------|
D|-------------------------|--------------------------|
A|-------------------------|--------------------------|
E|-------------------------|-----------------1--1--1--|
A|-0---6-6-5-5-0-0-2~~~2-2-|-2-2-1~~~1-1-1-1-1--1--1--|
       * * * * * *     * *   * *     * * * * *  *  *

-----------------------------------------------------------------------------------------
|                                    VERSE 2 (01:31-01:51)                              |
-----------------------------------------------------------------------------------------
                                       same as VERSE                                     
-----------------------------------------------------------------------------------------
|                                   CHORUS 2 (01:51-02:12)                              |
-----------------------------------------------------------------------------------------
                                       same as CHORUS
-----------------------------------------------------------------------------------------
|                                    BRIDGE (02:12-03:00)                               |
-----------------------------------------------------------------------------------------

There are many synths in this part of this song, so you can barely hear the guitar notes
I tabbed out what I hear, but propably there are a lot more than that.
Here is how it goes:

8 bars empty, then:

Guitar 1 (w/ clean and delay)

E|-----------|-----------------------------|-----------|---------------------|
B|-----------|-----------------------------|-----------|-----------------13--|
G|-----9-----|------9--10-9----------------|-----9-----|---------9---10------|
D|-----------|-----------------------------|-----------|-14--12--------------|
A|-----------|-----------------------------|-----------|---------------------|
E|-----------|-----------------------------|-----------|---------------------|
A|-----------|-----------------------------|-----------|---------------------|

E|-----------|-----------------------------|-----------|---------------------|
B|-----------|-----------------------------|-----------|-----------------13--|
G|-----------|-------9s10-12-12------------|-----9-----|---------9---10------|
D|-----------|-------------------15-14-12--|-----------|-14--12--------------|
A|-----------|-----------------------------|-----------|---------------------|
E|-----------|-----------------------------|-----------|---------------------|
A|-----------|-----------------------------|-----------|---------------------|

E|-----------|-----------------------------|-----------|---------------------|
B|-----------|-----------------------------|-----------|-----------------13--|
G|-----9-----|------9--10-9----------------|------9----|---------9---10--10--|
D|-----------|-----------------------------|-----------|-14--12--------------|
A|-----------|-----------------------------|-----------|---------------------|
E|-----------|-----------------------------|-----------|---------------------|
A|-----------|-----------------------------|-----------|---------------------|

Guitar 2 (w/ clean and delay)

E|-----------|-----------------------------|-----------|------------------------|
B|-----------|-----------------------------|-----------|------------------------|
G|-----------|-----------------------------|-----------|------------------------|
D|-----------|-----------------------------|-----------|------------------------|
A|-----------|-----------------------------|-----------|---------10-------------|
E|-----------|-----------------------------|-----------|-13--12------12---------|
A|-----------|-----------------------------|-----------|-----------------10s12--|

E|-----------|-----------------------------|-----------|------------------------|
B|-----------|-----------------------------|-----------|------------------------|
G|-----------|-------9s10-12-12------------|-----------|------------------------|
D|-----------|-------------------15-14-12--|-----------|------------------------|
A|-----------|-----------------------------|-----------|---------10-------------|
E|-----------|-----------------------------|-----------|-13--12------12---------|
A|-12--------|-----------------------------|-----------|-----------------10s12--|

E|-----------|-----------------------------|-----------|------------------------|
B|-----------|-----------------------------|-----------|------------------------|
G|-----------|-----------------------------|-----------|------------------------|
D|-----------|-----------------------------|-----------|------------------------|
A|-----------|-----------------------------|-----------|---------10-------------|
E|-----------|-----------------------------|-----------|-13--12------12---------|
A|-12--------|-----------------------------|-----------|-----------------10s12--|

-----------------------------------------------------------------------------------------
|                                     OUTRO (03:00-03:24)                               |
-----------------------------------------------------------------------------------------

Guitars 1 and 2 (w/ dist)

E|--------|
B|--------|
G|--------|
D|--------|
A|--------|
E|--------|
A|-1s6s1--|
   slide 

E|--------------------|---------------------|
B|--------------------|---------------------|
G|--------------------|---------------------|
D|--------------------|---------------------| x3
A|--------------------|---------------------|
E|--------------------|---------------------|
A|-0---2--1--0-s11--0-|-2--1--0-s11--0--1---|
  
E|-----------------------|-------------------------|
B|-----------------------|-------------------------|
G|-----------------------|-------------------------|
D|-----------------------|-------------------------|
A|-----11-11-11-11-11-11-|-11-11-11-11-11-11-11-11-|
E|-----11-11-11-11-11-11-|-11-11-11-11-11-11-11-11-|
A|-0---11-11-11-11-11-11-|-11-11-11-11-11-11-11-11-|
                                          *  *  * 
E|---------------------|---------------------|
B|---------------------|---------------------|
G|---------------------|---------------------|
D|---------------------|---------------------| x2
A|-0------------11-----|----------11-----1---|
E|-0---2--1--0--11--0--|-2--1--0--11--0--1---|
A|-0---2--1--0--11--0--|-2--1--0--11--0--1---|
       *  *  *      *    *  *  *      *
E|----------------------|----------------------|
B|----------------------|----------------------|
G|----------------------|----------------------|
D|----------------------|----------------------|
A|-0-------------11-----|-----------11---------|
E|-0-------------11--0--|-----------11--0------|
A|-0---2--1-1-0--11--0--|-2--1-1-0--11--0--3~~~|
       *  * * *      *    *  * * *      *  +
E|---------------------|---------------------|---------------|
B|---------------------|---------------------|---------------|
G|---------------------|---------------------|---------------|
D|---------------------|---------------------|---------------|
A|-0------------11-----|----------11-----11--|-0-------------|
E|-0---2--1--0--11--0--|-2--1--0--11--0--11--|-0-------------|
A|-0---2--1--0--11--0--|-2--1--0--11--0--11--|-0-------------|
       *  *  *      *    *  *  *      *


*****************************************************************************************
*                                        #6 ABEO                                        *
*****************************************************************************************

-----------------------------------------------------------------------------------------
                                      (00:00-01:04)
-----------------------------------------------------------------------------------------

Guitar 1 (w/ clean and delay)

E|---------------------------------|---------------------------|
B|---------------------------------|---------------------------|
G|---------8-----------8-----------|-8-----------8b--r--~~~~~~~| 
D|-5---7-------5---7-------5---7---|-----5---7-----------------| x2
A|---------------------------------|---------------------------|
E|---------------------------------|---------------------------|
A|---------------------------------|---------------------------|

E|---------------------------------|---------------------------|
B|---------------------------------|---------------------------|
G|---------8-----------8-----------|-8-----------8~~~~~~~~~~~~~| 
D|-5---7-------5---7-------5---7---|-----5---7-----------------| x2
A|---------------------------------|---------------------------|
E|---------------------------------|---------------------------|
A|---------------------------------|---------------------------|

E|---------------------------------|---------------------------|
B|---------------------------------|---------------------------|
G|---------8-----------8-----------|-8-----------8b--r--~~~~~~~| 
D|-5---7-------5---7-------5---7---|-----5---7-----------------|
A|---------------------------------|---------------------------|
E|---------------------------------|---------------------------|
A|---------------------------------|---------------------------|

E|---------------------------------|---------------------------|
B|---------------------------------|---------------------------|
G|---------8-----------8-----------|-8-----------8b------------| 
D|-5---7-------5---7-------5---7---|-----5---7-----------------|
A|---------------------------------|---------------------------|
E|---------------------------------|---------------------------|
A|---------------------------------|---------------------------|

E|---------------------------------|---------------------------|
B|---------------------------------|---------------------------|
G|---------8-----------8-----------|-8-----------8--8b--r--~~~~| 
D|-5---7-------5---7-------5---7---|-----5---7-----------------|
A|---------------------------------|---------------------------|
E|---------------------------------|---------------------------|
A|---------------------------------|---------------------------|

E|---------------------------------|---------------------------|
B|---------------------------------|---------------------------|
G|---------8-----------8-----------|-8-----------8b--r--~~~~~~~| 
D|-5---7-------5---7-------5---7---|-----5---7-----------------|
A|---------------------------------|---------------------------|
E|---------------------------------|---------------------------|
A|---------------------------------|---------------------------|

E|---------------------------------|---------------------------|
B|---------------------------------|---------------------------|
G|---------8-----------8-----------|-8-----------8~~~~~~~~~~~~~| 
D|-5---7-------5---7-------5---7---|-----5---7-----------------|
A|---------------------------------|---------------------------|
E|---------------------------------|---------------------------|
A|---------------------------------|---------------------------|

E|---------------------------------|---------------------------|
B|---------------------------------|---------------------------|
G|---------8-----------8-----------|-8~~~~~~~~~~~~~~~~~~~~~~~~~| 
D|-5---7-------5---7-------5---7---|---------------------------|
A|---------------------------------|---------------------------|
E|---------------------------------|---------------------------|
A|---------------------------------|---------------------------|

Guitar 2 (w/ clean and delay)

E|---------------------------------|---------------------------|
B|---------------------------------|---------------------------|
G|---------------------------------|---------------------------|
D|---------------------------------|---------------------------|
A|---------------------------------|---------------------------|
E|-3~~~~~~~~~~~~~~~~~~~~~~~~~~~~~~~|~~~~~~~~~~~~~~~~~~~~~~~~~~~|
A|---------------------------------|---------------------------|


*****************************************************************************************
*                                       #7 SP LIT                                       *
*****************************************************************************************

-----------------------------------------------------------------------------------------
                                     INTRO (00:00-00:31)
-----------------------------------------------------------------------------------------

I. Guitar 1 (w/ dist)

E|-------------------------------------------------|
B|-------------------------------------------------|
G|-------------------------------------------------|
D|-------------------------------------------------| x3
A|-------------------------------------------------|
E|-0--0--------0--------0-----------------4--4--4--|
A|-0--0--4--3--0--4--3--0--4--3--4--3--0-----------|
   *  *        *        *              *
E|-------------------------------------------------|
B|-------------------------------------------------|
G|-------------------------------------------------|
D|-------------------------------------------------|
A|-------4--3-----4--3-----4--3--4--3--------------|
E|-0--0--4--3--0--4--3--0--4--3--4--3-----4--4--4--|
A|-0--0--4--3--0--4--3--0--4--3--4--3--0-----------|
   *  *        *        *              *
  Guitar 2 (w/ dist)

E|-------------------------------------------------|
B|-------------------------------------------------|
G|-------------------------------------------------| x3
D|-------6--5-----6--5-----6--5--6--5-----6--6--6--| 
A|-------------------------------------------------|
E|-0--0--------0--------0--------------------------|
A|-0--0--------0--------0--------------0-----------|
   *  *        *        *              *
E|-------------------------------------------------|
B|-------------------------------------------------|
G|-------------------------------------------------|
D|-------6--5-----6--5-----6--5--6--5-----6--6--6--|
A|-------x--x-----x--x-----x--x--x--x--------------|
E|-0--0--4--3--0--4--3--0--4--3--4--3--------------|
A|-0--0--------0--------0--------------0-----------|
   *  *        *        *              *

II. Guitars 1 and 2 (w/ dist)

E|-------------------------------------------|
B|-------------------------------------------|
G|-------------------------------------------|
D|-------------------------------------------| x3
A|-------------------------------------------|
E|-------------------------------------------|
A|-0--0--1p-0--0--1p-0--0--1p-0--0---0---0---|
   *  *        *        *        *   *   *

III. Guitar 1 (w/ dist)

E|-------------------------------------------------|
B|-------------------------------------------------|
G|-------------------------------------------------|
D|----------------------------------------6--6--6--|
A|-------4--3-----4--3-----4--3--4--3-----x--x--x--|
E|-------4--3-----4--3-----4--3--4--3-----4--4--4--|
A|-0--0--4--3--0--4--3--0--4--3--4--3--0-----------|
   *  *        *        *              *

     Guitar 2 (w/ dist)

E|-------------------------------------------------|
B|-------------------------------------------------|
G|-------------------------------------------------|
D|-------------------------------------------------|
A|-------4--3-----4--3-----4--3--4--3--------------|
E|-------4--3-----4--3-----4--3--4--3--------------|
A|-0--0--4--3--0--4--3--0--4--3--4--3--0-----------|
   *  *        *        *              *

IV. Guitars 1 and 2 (w/ dist)

E|-------------------------------------------|-----------------------------------------------|
B|-------------------------------------------|-----------------------------------------------|
G|-------------------------------------------|-----------------------------------------------|
D|----------------8--7-----------------------|----------------8--7---------------------------|
A|-------4--3-----x--x-----------------------|-------4--3-----x--x------------------`5`5`5`5`|
E|-------4--3-----6--5-----------------------|-------4--3-----6--5---------------------------|
A|-0--0--4--3--0--------0--1p-0--0---0---0---|-0--0--4--3--0--------0--1p-0--0---0-----------|
   *  *        *                 *   *   *     *  *        *                 *   *
E|-------------------------------------------|-------------------------------------------------|
B|-------------------------------------------|-------------------------------------------------|
G|-------------------------------------------|-------------------------------------------------|
D|----------------8--7-----------------------|----------------------------------------6--6--6--|
A|-------4--3-----x--x-----------------------|-------4--3-----4--3-----4--3--4--3-----x--x--x--|
E|-------4--3-----6--5-----------------------|-------4--3-----4--3-----4--3--4--3-----4--4--4--|
A|-0--0--4--3--0--------0--1p-0--0---0---0---|-0--0--4--3--0--4--3--0--4--3--4--3--0-----------|
   *  *        *                 *   *   *     *  *        *        *              *

-----------------------------------------------------------------------------------------
                                    VERSE (00:31-00:41)
-----------------------------------------------------------------------------------------

Guitars 1 and 2 (w/ dist)

E|---------------|---------------------|--------------|-----------------------------|
B|---------------|---------------------|--------------|-----------------------------|
G|---------------|---------------------|--------------|-----------------------------|
D|---------------|---------------------|--------------|-----------------------------|
A|-1-------------|-------1-------------|-1---------1--|-1---1---1--1----------------|
E|-1---------1-1-|-1--1--1---------1-1-|-1---------1--|-1---1---1--1----------------|
A|---------------|---------------------|--------------|-----------------------------|
             * *   *  *            * *             *    *   *   *   
                    
-----------------------------------------------------------------------------------------
                                  PRE-CHORUS (00:41-00:52)
-----------------------------------------------------------------------------------------

I. Guitars 1 and 2 (w/ dist)

E|-----------------------------------------------------|
B|-----------------------------------------------------|
G|-----------------------------------------------------|
D|-----------------------------------------------------|
A|-----------------1--------1-----1--------1h-2--1h-2--|
E|-1-1-1-1-1-1-1-1-1--1--1--1--1--1--1--1--1h-2--1h-2--|
A|-----------------------------------------------------|
   * * * * * * * *    *  *     *     *  *

II. Guitar 1 (w/ dist)

E|-------------------------------------------------------------|
B|-------------------------------------------------------------|
G|-------------------------------------------------------------|
D|-------------------------------------------------------------|
A|-6-6-6-6-6-6-5-5-5-5-5-5---------------------------------5~~~|
E|-------------------------6-6-6-6-6-6-7-7-7-7-7-7-8-8-8-8-----|
A|-------------------------------------------------------------|
                                                           +

   Guitar 2 (w/ dist)

E|-----------------------------------------------------------------------|
B|-----------------------------------------------------------------------|
G|-----------------------------------------------------------------------|
D|-----------------------------------------------------------------------|
A|-9-9-9-9-9-9-8-8-8-8-8-8-------------------------------------------8~~~|
E|-------------------------9-9-9-9-9-9-10-10-10-10-10-10-11-11-11-11-----|
A|-----------------------------------------------------------------------|
                                                                     +

III. Guitars 1 and 2 (w/ dist)

E|-----------------------------------------------------|
B|-----------------------------------------------------|
G|-----------------------------------------------------|
D|-----------------------------------------------------|
A|-----------------1--------1-----1--------1h-2--1h-2--|
E|-1-1-1-1-1-1-1-1-1--1--1--1--1--1--1--1--1h-2--1h-2--|
A|-----------------------------------------------------|
   * * * * * * * *    *  *     *     *  * 
E|-----------------------------------------------|
B|-----------------------------------------------|
G|-----------------------------------------------|
D|-----------------------------------------------|
A|-1--------1--------1--------1-----0-----0------|
E|-1--1--1--1--1--1--1--1--1--1--1--0--1--0------|
A|-----------------------------------------------|
      *  *     *  *     *  *     *     *  *
 
-----------------------------------------------------------------------------------------
                                    CHORUS (00:52-01:12)
-----------------------------------------------------------------------------------------

Guitar 1 (w/ dist)

E|----------------------------------|------------------------------------|
B|----------------------------------|------------------------------------|
G|----------------------------------|------------------------------------|
D|-9-s10s9--7-s9-s7-----------------|------------------------------------|
A|-x--x--x--x--x--x--6----3----2----|s9--9--9--10--10--10--3--------1----|
E|-7-s8-s7--5-s7-s5--6----3----2----|s9--9--9--10--10--10--3----3---1----|
A|-------------------6----3----2----|s9--9--9--10--10--10--3----3---1----|
                                                                *
E|----------------------------------|------------------------------------|
B|----------------------------------|------------------------------------|
G|----------------------------------|------------------------------------|
D|-9-s10s9--7-s9-s7-------5----4----|-4--4--4--5--5--5--10---10--10-11---|
A|-x--x--x--x--x--x--6----x----x----|-x--x--x--x--x--x--x----x---x--x----|
E|-7-s8-s7--5-s7-s5--6----3----2----|-2--2--2--3--3--3--8----8---8--9----|
A|-------------------6--------------|------------------------------------|

E|----------------------------------|------------------------------------|
B|----------------------------------|------------------------------------|
G|----------------------------------|------------------------------------|
D|-9-s10s9--7-s9-s7-----------------|------------------------------------|
A|-x--x--x--x--x--x--6----3----2----|s9--9--9--10--10--10--3--------1----|
E|-7-s8-s7--5-s7-s5--6----3----2----|s9--9--9--10--10--10--3----3---1----|
A|-------------------6----3----2----|s9--9--9--10--10--10--3----3---1----|
                                                                *
E|----------------------------------|------------------------------------|
B|----------------------------------|------------------------------------|
G|----------------------------------|------------------------------------|
D|-9--10-9--7--9--7-------5----4----|-4--4--4--5--5--5--10---------------|
A|-x--x--x--x--x--x--6----x----x----|-x--x--x--x--x--x--x----------------|
E|-7--8--7--5--7--5--6----3----2----|-2--2--2--3--3--3--8----0---0---0---|
A|-------------------6--------------|------------------------0---0---0---|
                                                             *   *   *

Guitar 2 (w/ dist)

E|----------------------------------|------------------------------------|
B|----------------------------------|------------------------------------|
G|----------------------------------|------------------------------------|
D|-9-s10s9--7-s9-s7-----------------|------------------------------------|
A|-x--x--x--x--x--x--6----3----2----|s9--9--9--10--10--10--3--------1----|
E|-7-s8-s7--5-s7-s5--6----3----2----|s9--9--9--10--10--10--3----3---1----|
A|-------------------6----3----2----|s9--9--9--10--10--10--3----3---1----|
                                                                *
E|----------------------------------|------------------------------------|
B|----------------------------------|------------------------------------|
G|----------------------------------|------------------------------------|
D|-9-s10s9--7-s9-s7-----------------|------------------------------------|
A|-x--x--x--x--x--x--6----3----2----|s9--9--9--10--10--10--3---------1---|
E|-7-s8-s7--5-s7-s5--6----3----2----|s9--9--9--10--10--10--3---3--3--1---|
A|-------------------6----3----2----|s9--9--9--10--10--10--3---3--3--1---|
                                                               *  *
E|----------------------------------|------------------------------------|
B|----------------------------------|------------------------------------|
G|----------------------------------|------------------------------------|
D|-9-s10s9--7-s9-s7-----------------|------------------------------------|
A|-x--x--x--x--x--x--6----3----2----|s9--9--9--10--10--10--3--------1----|
E|-7-s8-s7--5-s7-s5--6----3----2----|s9--9--9--10--10--10--3----3---1----|
A|-------------------6----3----2----|s9--9--9--10--10--10--3----3---1----|
                                                                *
E|----------------------------------|--------------------------------------|
B|----------------------------------|--------------------------------------|
G|----------------------------------|--------------------------------------|
D|-9-s10s9--7-s9-s7-----------------|--------------------------------------|
A|-x--x--x--x--x--x--6----3----2----|s9--9--9--10--10--10--3---------------|
E|-7-s8-s7--5-s7-s5--6----3----2----|s9--9--9--10--10--10--3---0---0---0---|
A|-------------------6----3----2----|s9--9--9--10--10--10--3---0---0---0---|
                                                               *   *   *

-----------------------------------------------------------------------------------------
                                   INTERLUDE (01:12-01:33)
-----------------------------------------------------------------------------------------

I. Guitars 1 and 2 (w/ dist)

E|-------------------------------------------|
B|-------------------------------------------|
G|-------------------------------------------|
D|-------------------------------------------| x3
A|-------------------------------------------|
E|-------------------------------------------|
A|-0--0--1p-0--0--1p-0--0--1p-0--0---0---0---|
   *  *        *        *        *   *   *

II. Guitar 1 (w/ dist)

E|-------------------------------------------------|
B|-------------------------------------------------|
G|-------------------------------------------------|
D|----------------------------------------6--6--6--|
A|-------4--3-----4--3-----4--3--4--3-----x--x--x--|
E|-------4--3-----4--3-----4--3--4--3-----4--4--4--|
A|-0--0--4--3--0--4--3--0--4--3--4--3--0-----------|
   *  *        *        *              *

   Guitar 2 (w/ dist)

E|-------------------------------------------------|
B|-------------------------------------------------|
G|-------------------------------------------------|
D|-------------------------------------------------|
A|-------4--3-----4--3-----4--3--4--3--------------|
E|-------4--3-----4--3-----4--3--4--3--------------|
A|-0--0--4--3--0--4--3--0--4--3--4--3--0-----------|
   *  *        *        *              *

III. Guitars 1 and 2 (w/ dist)

E|-------------------------------------------|-----------------------------------------------|
B|-------------------------------------------|-----------------------------------------------|
G|-------------------------------------------|-----------------------------------------------|
D|----------------8--7-----------------------|----------------8--7---------------------------|
A|-------4--3-----x--x-----------------------|-------4--3-----x--x------------------`5`5`5`5`|
E|-------4--3-----6--5-----------------------|-------4--3-----6--5---------------------------|
A|-0--0--4--3--0--------0--1p-0--0---0---0---|-0--0--4--3--0--------0--1p-0--0---0-----------|
   *  *        *                 *   *   *     *  *        *                 *   *
E|-------------------------------------------|-------------------------------------------------|
B|-------------------------------------------|-------------------------------------------------|
G|-------------------------------------------|-------------------------------------------------|
D|----------------8--7-----------------------|----------------------------------------6--6--6--|
A|-------4--3-----x--x-----------------------|-------4--3-----4--3-----4--3--4--3-----x--x--x--|
E|-------4--3-----6--5-----------------------|-------4--3-----4--3-----4--3--4--3-----4--4--4--|
A|-0--0--4--3--0--------0--1p-0--0---0---0---|-0--0--4--3--0--4--3--0--4--3--4--3--0-----------|
   *  *        *                 *   *   *     *  *        *        *              *

-----------------------------------------------------------------------------------------
                                    VERSE 2 (01:33-01:43)
-----------------------------------------------------------------------------------------
                                        same as VERSE
-----------------------------------------------------------------------------------------
                                  PRE-CHORUS 2 (01:43-01:54)
-----------------------------------------------------------------------------------------
                                      same as PRE-CHORUS
-----------------------------------------------------------------------------------------
                                    CHORUS 2 (01:54-02:14)
-----------------------------------------------------------------------------------------
                                       same as CHORUS
-----------------------------------------------------------------------------------------
                                     BRIDGE (02:14-02:50)
-----------------------------------------------------------------------------------------

I. Guitars 1 and 2 (w/ dist) - 8 bars empty, then:

E|-------------------------------------------|
B|-------------------------------------------|
G|-------------------------------------------|
D|-------------------------------------------| x3
A|-------------------------------------------|
E|-------------------------------------------|
A|-0--0--1p-0--0--1p-0--0--1p-0--0---0---0---|
   *  *        *        *        *   *   *
E|-------------------------------------------|
B|-------------------------------------------|
G|-------------------------------------------|
D|-------------------------------------------|
A|-------4--3-----4--3-----4--3--------------|
E|-------4--3-----4--3-----4--3--------------|
A|-0--0--4--3--0--4--3--0--4--3--0---0---0---|
   *  *        *        *        *   *   *
E|-------------------------------------------|
B|-------------------------------------------|
G|-------------------------------------------|
D|-------------------------------------------| x3
A|-------------------------------------------|
E|-------------------------------------------|
A|-0--0--1p-0--0--1p-0--0--1p-0--0---0---0---|
   *  *        *        *        *   *   *

II. Guitar 1 (w/ dist)

E|------------------------------------------------|------------------------------|
B|------------------------------------------------|------------------------------|
G|------------------------------------------------|------------------------------|
D|-------------------------------------9-s10s9--7-|s9-s7-------------------------|
A|-------4--3-----4--3-----4--3--4--3--x--x--x--x-|-x--x--6----3----2----9----10-|
E|-------4--3-----4--3-----4--3--4--3--7-s8-s7--5-|s7-s5--6----3----2----9----10-|
A|-0--0--4--3--0--4--3--0--4--3--4--3-------------|-------6----3----2----9----10-|
   *  *        *        *      
E|-----------------------------------|
B|-----------------------------------|
G|-----------------------------------|
D|-----------------------------------|
A|---3--------------------1----------|
E|---3--------------------1----------|
A|---3----1-1-1-1-1-1-1-1-1----------|
          * * * * * * * *

   Guitar 2 (w/ dist)

E|------------------------------------------------|------------------------------|
B|------------------------------------------------|------------------------------|
G|------------------------------------------------|------------------------------|
D|-------------------------------------9-s10s9--7-|s9-s7-----------------4----5--|
A|-------4--3-----4--3-----4--3--4--3--x--x--x--x-|-x--x--6----3----2----s----s--|
E|-------4--3-----4--3-----4--3--4--3--7-s8-s7--5-|s7-s5--6----3----2----2----3--|
A|-0--0--4--3--0--4--3--0--4--3--4--3-------------|-------6----3----2------------|
   *  *        *        *         
E|-----------------------------------|
B|-----------------------------------|
G|-----------------------------------|
D|-----------------------------------|
A|---3--------------------1----------|
E|---3--------------------1----------|
A|---3----1-1-1-1-1-1-1-1-1----------|
          * * * * * * * *

-----------------------------------------------------------------------------------------
                                    CHORUS 3 (02:50-03:12)
-----------------------------------------------------------------------------------------
                                        same as CHORUS


*****************************************************************************************
*                              #8 PAINTING THE WHITE TO GREY                            *
*****************************************************************************************

-----------------------------------------------------------------------------------------
                                     INTRO (00:00-00:31)
-----------------------------------------------------------------------------------------

I. Guitar 1 (w/ dist)

E|------------------------------|-------------------------|
B|------------------------------|-------------------------|
G|------------------------------|-------------------------| x3
D|------------------------------|-------------------------|
A|------------------------------|-------------------------|
E|------------------------------|-------------------------|
A|-3-3-3------3-3-3-3-3------3--|--------3--3-3-3--3-3-3--|
   * * *      * * * * *      *           *  * * *  * * *

   Guitar 2 (w/ dist)

E|------------------------------|-------------------------|
B|------------------------------|-------------------------|
G|------------------------------|-------------------------| x3
D|------------------------------|-------------------------|
A|------------------------------|-------------------------|
E|------------------------------|-------------------------|
A|-3-3-3------3-3-3-3-3---------|----3---3--3-3-3--3-3-3--|
   * * *      * * * * *              *   *  * * *  * * *

II. Guitar 1 (w/ dist)

E|------------------------------|-------------------------|
B|------------------------------|-------------------------|
G|------------------------------|-------------------------| x3
D|------------------------------|-------------------------|
A|------------------------------|-------------------------|
E|------------------------------|-------------------------|
A|-3-3-3------3-3-3-3-3---------|----3---3--3-3-3--3-3-3--|
   * * *      * * * * *              *   *  * * *  * * *

   Guitar 2 (w/ dist)

E|------------------------------|-------------------------|
B|------------------------------|-------------------------|
G|------------------------------|-------------------------| x3
D|------------------------------|-------------------------|
A|------------------------------|-------------------------|
E|------------------------------|-------------------------|
A|-3-3-3------3-3-3-3-3------3--|--------3--3-3-3--3-3-3--|
   * * *      * * * * *      *           *  * * *  * * *

III. Guitar 1 (w/ dist)

E|--------------------------|--------------------|
B|--------------------------|--------------------|
G|--------------------------|--------------------|
D|--------------------------|--------------------|
A|--------------------------|---------------1----|
E|--------------------------|---------------1----|
A|-0--1--3--0--4--3--1--0---|---0--1--3--0--1----|
                                         *

    Guitar 2 (w/ dist)

E|--------------------------|--------------------|
B|--------------------------|--------------------|
G|--------------------------|--------------------|
D|--------------------------|--------------------|
A|--------------------------|---------------1----|
E|--------------------------|---------------1----|
A|--------------------------|---------------1----|

IV. Guitars 1 and 2 (w/ dist)


E|--------------------------|--------------------|
B|--------------------------|--------------------|
G|--------------------------|--------------------| x4
D|--------------------------|--------------------| 
A|--------------------------|---------------1----|
E|--------------------------|---------------1----|
A|-0--1--3--0--4--3--1--0---|---0--1--3--0--1----|
                                         *
                                        
-----------------------------------------------------------------------------------------
                                    VERSE (00:31-00:51)
-----------------------------------------------------------------------------------------

Guitar 1 (w/ slight overdrive and tremolo effect)

E|-------|-------|-------|-------|-------|-------|-------|-------|
B|-------|-------|-------|-------|-------|-------|-------|-------|
G|-------|-------|-------|-------|-------|-------|-------|-------| x2
D|-------|-------|-------|-------|-------|-------|-------|-------| 
A|-0-----|-------|-------|-------|-8-----|-------|-------|-------|
E|-0-----|-------|-------|-------|-8-----|-------|-------|-------|
A|-0-----|-------|-------|-------|-8-----|-------|-------|-------|

Guitar 2 (w/ slight overdrive) - let ring notes

E|---------------------|-----|-----|-----|-----|------------------|-------------------|
B|-----0---------------|-----|-----|-----|-----|------------------|---0---------------|
G|-----------2---------|-----|-----|-----|-----|------------------|---------2---------|
D|----------------0----|-----|-----|-----|-----|------------------|--------------0----|
A|---------------------|-----|-----|-----|-----|-------------0----|-------------------|
E|---------------------|-----|-----|-----|-----|-------0----------|-------------------|
A|---------------------|-----|-----|-----|-----|-0----------------|-------------------|

E|------------------|-------------------|------------------|-------------------|
B|------------------|---0---------------|------------------|---0---------------|
G|------------------|---------2---------|------------------|-------------------|
D|------------------|--------------0----|-------------3----|---------3---------|
A|-------------0----|-------------------|-------3----------|--------------3----|
E|-------0----------|-------------------|-1----------------|-------------------|
A|-0----------------|-------------------|------------------|-------------------|

-----------------------------------------------------------------------------------------
                                    CHORUS (00:51-01:17)
-----------------------------------------------------------------------------------------

Guitars 1 and 2 (w/ dist)

E|------------|
B|------------|
G|------------|
D|------------|
A|------------|
E|-xxxxxxx----|
A|-xxxxxxx-1s9|
  pick scratch then slide
                                         ------------|
E|-----------------------|------------------|        |
B|-----------------------|------------------|        |
G|-----------------------|------------------|        |
D|-----------------------|------------------| x3     | 
A|-----------------------|-------------1----|        |
E|-----------------------|-------------1----|        |
A|-0--2--2--0--2---0--2--|-2--0--2b----1----|        |
                                                     | x2
E|-----------------------|-------------------|       |
B|-----------------------|-------------------|       |
G|-----------------------|-------------------|       |
D|-----------------------|-------------s8----|       | 
A|-----------------------|--------------x----|       |
E|-----------------------|-----0--0--0-s6----|       |
A|-0--2--2--0--2---2--2--|-2---0--0--0-------|       |
                               *  *  *   ------------|

-----------------------------------------------------------------------------------------
                                   VERSE 2 (01:17-01:38)
-----------------------------------------------------------------------------------------
                                      same as VERSE
-----------------------------------------------------------------------------------------
                                   CHORUS 2 (01:38-02:04)
-----------------------------------------------------------------------------------------
                                      same as CHORUS
-----------------------------------------------------------------------------------------
                                     BRIDGE (02:04-3:00)
-----------------------------------------------------------------------------------------

I. Guitar 1 (w/ dist)

E|--------------------------|--------------------|
B|--------------------------|--------------------|
G|--------------------------|--------------------|
D|--------------------------|--------------------|
A|--------------------------|---------------1----|
E|--------------------------|---------------1----|
A|-0--1--3--0--4--3--1--0---|---0--1--3--0--1----|
                                         *

    Guitar 2 (w/ dist) - 2 empty bars

II. Guitars 1 and 2 (w/ dist)

E|--------------------------|--------------------|
B|--------------------------|--------------------|
G|--------------------------|--------------------| x5
D|--------------------------|--------------------| 
A|--------------------------|---------------1----|
E|--------------------------|---------------1----|
A|-0--1--3--0--4--3--1--0---|---0--1--3--0--1----|
                                         *

E|-------------------------|---------------------|--------------------|--------------------|
B|-------------------------|---------------------|--------------------|--------------------|
G|-------------------------|---------------------|--------------------|--------------------|
D|-------------------------|---------------------|--------------------|--------------------|
A|-------------------------|---------------------|--------------------|--------------------|
E|-------------------------|---------------------|--------------------|----------------3~~~|
A|-0------0h1-------0------|-0h1-------0h1--0h1--|-----0h1--0h1-------|-0h1--0h1--0h1------|
                                                                                       +
E|----------------------|---------------------|--------------------|--------------------|
B|----------------------|---------------------|--------------------|--------------------|
G|----------------------|---------------------|--------------------|--------------------|
D|----------------------|---------------------|--------------------|--------------------|
A|----------------------|---------------------|--------------------|--------------------|
E|----------------------|---------------------|--------------------|----------------3~~~|
A|-0h1--0--1-------0h1--|-0h1-------0h1--0h1--|-----0h1--0h1-------|-0h1--0h1--0h1------|
                                                                                    +
III. Guitar 1 (w/ dist)

E|-------------------|---------------------|-----------------|---------------------|
B|-------------------|---------------------|-----------------|---------------------|
G|-------------------|---------------------|-----------------|---------------------| x2
D|-------------------|---------------------|-----------------|---------------------| 
A|---------1---------|----1------------1---|------------1----|---------------------|
E|---------1---------|----1------------1---|------------1----|---------------------|
A|-0h1--0--1----0h1--|-0--1----0h1--0--1---|----0h1--0--1----|-0h1--0h1--0h1--0h1--|

     Guitar 2 (w/ dist)

E|-------------------|---------------------|-----------------|---------------------|
B|-------------------|---------------------|-----------------|---------------------|
G|-------------------|---------------------|-----------------|---------------------| x2
D|---------8---------|----8------------8---|------------8----|---------------------|
A|---------x---------|----x------------x---|------------x----|---------------------|
E|---------6---------|----6------------6---|------------6----|---------------------|
A|-0h1--0-------0h1--|-0-------0h1--0------|----0h1--0-------|-0h1--0h1--0h1--0h1--|

IV. Guitar 1 (w/ dist)

E|---------------------|---------------------|------------------|-------------------------|
B|---------------------|---------------------|------------------|-------------------------|
G|---------------------|---------------------|------------------|-------------------------|
D|---------------------|---------------------|------------------|-------------------------|
A|----------1----------|----1-------------1--|-------------1----|-------------------------|
E|-0--0--0--1----0--0--|-0--1----0--0--0--1--|----0--0--0--1----|-0--1--1--0--1--1--0--1--|
A|-0--0--0--1----0--0--|-0--1----0--0--0--1--|----0--0--0--1----|-0--1--1--0--1--1--0--1--|
   *  *  *       *  *    *       *  *  *          *  *  *         *  *  *  *  *  *  *  *
    Guitar 2 (w/ dist)

E|---------------------|---------------------|------------------|-------------------------|
B|---------------------|---------------------|------------------|-------------------------|
G|---------------------|---------------------|------------------|-------------------------|
D|----------8----------|----8-------------8--|-------------8----|-------------------------|
A|----------x----------|----x-------------x--|-------------x----|-------------------------|
E|-0--0--0--6----0--0--|-0--6----0--0--0--6--|----0--0--0--6----|-0--1--1--0--1--1--0--1--|
A|-0--0--0-------0--0--|-0-------0--0--0-----|----0--0--0-------|-0--1--1--0--1--1--0--1--|
   *  *  *       *  *    *       *  *  *          *  *  *         *  *  *  *  *  *  *  *

V. Guitar 1 (w/ dist)

E|--------------------------|-------------------------|---------------------|-------------------------|
B|--------------------------|-------------------------|---------------------|-------------------------|
G|--------------------------|-------------------------|---------------------|-------------------------|
D|--------------------------|-------------------------|---------------------|-------------------------|
A|-------------1------------|-----1----------------1--|----------------1----|-------------------------|
E|-------------1------------|-----1----------------1--|----------------1----|-0--1--1--0--1--1--0--1--|
A|-0-0-0-0-0-0-1----0-0-0-0-|-0-0-1----0-0-0-0-0-0-1--|----0-0-0-0-0-0-1----|-0--1--1--0--1--1--0--1--|
   * * * * * *      * * * *   * *      * * * * * *         * * * * * *        *  *  *  *  *  *  *  *

   Guitar 2 (w/ dist)

E|--------------------------|-------------------------|---------------------|-------------------------|
B|--------------------------|-------------------------|---------------------|-------------------------|
G|--------------------------|-------------------------|---------------------|-------------------------|
D|-------------8------------|-----8----------------8--|----------------8----|-------------------------|
A|-------------x------------|-----x----------------x--|----------------x----|-------------------------|
E|-------------6------------|-----6----------------6--|----------------6----|-0--1--1--0--1--1--0--1--|
A|-0-0-0-0-0-0------0-0-0-0-|-0-0------0-0-0-0-0-0----|----0-0-0-0-0-0------|-0--1--1--0--1--1--0--1--|
   * * * * * *      * * * *   * *      * * * * * *         * * * * * *        *  *  *  *  *  *  *  *

VI. Guitars 1 and 2 (w/ dist)

E|--------|-------|-------|-------|
B|--------|-------|-------|-------|
G|--------|-------|-------|-------|
D|--------|-------|-------|-------|
A|-0------|-------|-------|-------|
E|-0------|-------|-------|-------|
A|-0------|-------|-------|-------|

-----------------------------------------------------------------------------------------
                                    BRIDGE 2 (03:00-3:31)
-----------------------------------------------------------------------------------------

I. Guitar 1 (w/ slight overdrive and tremolo effect)

E|-------|-------|-------|-------|-------|-------|-------|-------|
B|-------|-------|-------|-------|-------|-------|-------|-------|
G|-------|-------|-------|-------|-------|-------|-------|-------| x2
D|-------|-------|-------|-------|-------|-------|-------|-------| 
A|-8-----|-------|-------|-------|-0-----|-------|-------|-------|
E|-8-----|-------|-------|-------|-0-----|-------|-------|-------|
A|-8-----|-------|-------|-------|-0-----|-------|-------|-------|

II. Guitar 1 (w/ slight overdrive and tremolo effect)

E|-------|-------|-------|-------|
B|-------|-------|-------|-------|
G|-------|-------|-------|-------|
D|-------|-------|-------|-------|
A|-8-----|-------|-------|-------|
E|-8-----|-------|-------|-------|
A|-8-----|-------|-------|-------|

   Guitar 2 (w/ slight overdrive) - fade in with volume pedal

E|-------------------------|-------------------------|-------------------------|---------------------|
B|-------------------------|-------------------------|-------------------------|---------------------|
G|-9--10-10-10-9--10-10-10-|-9--10-10-10-9--10-10-10-|-9--10-10-10-9--10-10-10-|-9--10-10-10-10------|
D|-------------------------|-------------------------|-------------------------|---------------------|
A|-------------------------|-------------------------|-------------------------|---------------------|
E|-------------------------|-------------------------|-------------------------|---------------------|
A|-------------------------|-------------------------|-------------------------|---------------------|

-----------------------------------------------------------------------------------------
                                   CHORUS 3 (03:31-03:54)
-----------------------------------------------------------------------------------------

Guitars 1 and 2 (w/ dist)

E|--------------------------|
B|--------------------------|
G|--------------------------| x7
D|--------------------------|
A|-1--------1---------------|
E|-1--0--0--1--0--0--0-0-0--|
A|-1--0--0--1--0--0--0-0-0--| 
      *  *     *  *  * * *     
E|-----------------------|
B|-----------------------|
G|-----------------------|
D|-----------------------|
A|-1--------1------------|
E|-1--0--0--1--0---------|
A|-1--0--0--1--0--1s8s1--|
      *  *     *  slide

E|--------------------------|     |-------|
B|--------------------------|     |-------|
G|--------------------------| x7  |-------|
D|--------------------------|     |-------|
A|-1--------1---------------|     |-------|
E|-1--0--0--1--0--0--0-0-0--|     |-------|
A|-1--0--0--1--0--0--0-0-0--|     |-1s15--|
      *  *     *  *  * * *         wide slide

-----------------------------------------------------------------------------------------
                                     OUTRO (03:54-04:45)
-----------------------------------------------------------------------------------------

I. Guitars 1 and 2 (w/ dist)

E|--------------------------|
B|--------------------------|
G|--------------------------| x8
D|--------------------------|
A|-1--------1---------------|
E|-1--0--0--1--0--0--0-0-0--|
A|-1--0--0--1--0--0--0-0-0--| 
      *  *     *  *  * * *   

   Guitar 3 (w/ dist)

E|---------------------------------|---------------------------------|
B|---------------------------------|---------------------------------|
G|-9-9-9-9-9-9-9-9-9-9-9-9-9-9-9-9-|-9-9-9-9-9-9-9-9-9-9-9-9-9-9-9-9-|
D|-x-x-x-x-x-x-x-x-x-x-x-x-x-x-x-x-|-x-x-x-x-x-x-x-x-x-x-x-x-x-x-x-x-|
A|-7-7-7-7-7-7-7-7-7-7-7-7-7-7-7-7-|-7-7-7-7-7-7-7-7-7-7-7-7-7-7-7-7-|
E|---------------------------------|---------------------------------|
A|---------------------------------|---------------------------------|

E|-------------------------------------------------|-------------------------------------------------|
B|-------------------------------------------------|-------------------------------------------------|
G|-10-10-10-10-10-10-10-10-10-10-10-10-10-10-10-10-|-10-10-10-10-10-10-10-10-10-10-10-10-10-10-10-10-|
D|-x--x--x--x--x--x--x--x--x--x--x--x--x--x--x--x--|-x--x--x--x--x--x--x--x--x--x--x--x--x--x--x--x--|
A|-8--8--8--8--8--8--8--8--8--8--8--8--8--8--8--8--|-8--8--8--8--8--8--8--8--8--8--8--8--8--8--8--8--|
E|-------------------------------------------------|-------------------------------------------------|
A|-------------------------------------------------|-------------------------------------------------|

E|-----------------------------------|-------------------------------------|
B|-----------------------------------|-------------------------------------|
G|-10-10-9-9-9-9-9-9-9-9-9-9-9-9-9-9-|-9-9-9-9-9-9-9-9-9-9-9-9-14-14-14-14-|
D|-x--x--x-x-x-x-x-x-x-x-x-x-x-x-x-x-|-x-x-x-x-x-x-x-x-x-x-x-x-x--x--x--x--|
A|-8--8--7-7-7-7-7-7-7-7-7-7-7-7-7-7-|-7-7-7-7-7-7-7-7-7-7-7-7-12-12-12-12-|
E|-----------------------------------|-------------------------------------|
A|-----------------------------------|-------------------------------------|

E|-------------------------------------------------|-------------------------------------------------|
B|-------------------------------------------------|-------------------------------------------------|
G|-12-12-12-12-12-12-12-12-12-12-12-12-12-12-12-12-|-10-10-10-10-10-10-10-10-10-10-10-10-10-10-10-10-|
D|-x--x--x--x--x--x--x--x--x--x--x--x--x--x--x--x--|-x--x--x--x--x--x--x--x--x--x--x--x--x--x--x--x--|
A|-10-10-10-10-10-10-10-10-10-10-10-10-10-10-10-10-|-8--8--8--8--8--8--8--8--8--8--8--8--8--8--8--8--|
E|-------------------------------------------------|-------------------------------------------------|
A|-------------------------------------------------|-------------------------------------------------|

II. Guitars 1 and 2 (w/ dist)

E|--------|-------|-------|-------|
B|--------|-------|-------|-------|
G|--------|-------|-------|-------|
D|--------|-------|-------|-------|
A|-0------|-------|-------|-------|
E|-0------|-------|-------|-------|
A|-0------|-------|-------|-------|

   Guitar 3 (w/ dist)

E|--------|-------|-------|-------|
B|--------|-------|-------|-------|
G|-9------|-------|-------|-------|
D|-x------|-------|-------|-------|
A|-7------|-------|-------|-------|
E|--------|-------|-------|-------|
A|--------|-------|-------|-------|

then it's outro with synths, but also some guitar notes:

III. Guitar 1 (w/ slight overdrive and tremolo effect)

E|--------|-------|----------|---------|--------|----------|
B|--------|-------|----------|---------|--------|----------|
G|--------|-------|----------|---------|--------|----------|
D|--------|-------|-14----12-|---------|--------|----------|
A|-12-----|-------|----------|------14-|-15-----|----------|
E|--------|-------|----------|---------|--------|----------|
A|--------|-------|----------|---------|--------|----------|


*****************************************************************************************
*                                      #9 TASTE MY...                                   *
*****************************************************************************************

-----------------------------------------------------------------------------------------
                                     INTRO (00:00-00:23)
-----------------------------------------------------------------------------------------
         
Guitar 1 (w/ dist)
                             
E|---------------------|---------------------|---------------------|--------------------|
B|---------------------|---------------------|---------------------|--------------------|
G|---------------------|---------------------|---------------------|--------------------|
D|---------------------|---------------------|---------------------|--------------------|
A|---------------------|---------------------|---------------------|--------------------|
E|-3s5-----5-----5--6--|-3s5-----5-----5--6--|-3s5-----5-----5--6--|--------------------|
A|------0-----0--------|------0-----0--------|------0-----0--------|-1---0--1--0--1s3---|
        *     *               *     *               *     *              *     * 

Guitar 1 (w/ dist) and Guitar 2 (w/ dist and chorus)
                                                              chorus off
E|---------------------|---------------------|---------------------|--------------------|
B|---------------------|---------------------|---------------------|--------------------|
G|---------------------|---------------------|---------------------|--------------------|
D|---------------------|---------------------|---------------------|--------------------|
A|---------------------|---------------------|---------------------|-1------1-----1s3---|
E|-3s5-----5-----5--6--|-3s5-----5-----5--6--|-3s5-----5-----5--6--|-1---0--1--0--1s3---|
A|------0-----0--------|------0-----0--------|------0-----0--------|-1---0--1--0--1s3---|
        *     *               *     *               *     *              *     *

Guitars 1 and 2 (w/ dist)

E|-------------------|-------------------|-------------------|--------------------|
B|-------------------|-------------------|-------------------|--------------------|
G|-------------------|-------------------|-------------------|--------------------|
D|-------------------|-------------------|-------------------|--------------------|
A|-------------------|-------------------|-------------------|-1------1-----1s3---|
E|-5-----5-----5--6--|-5-----5-----5--6--|-5-----5-----5--6--|-1---0--1--0--1s3---|
A|----0-----0--------|----0-----0--------|----0-----0--------|-1---0--1--0--1s3---|
      *     *             *     *             *     *              *     * 
E|-------------------|-------------------|-------------------|--------------------|
B|-------------------|-------------------|-------------------|--------------------|
G|-------------------|-------------------|-------------------|--------------------|
D|-------------------|-------------------|-------------------|--------------------|
A|-------------------|-------------------|-------------------|-1------1-----1s3-4-|
E|-5-----5-----5--6--|-5-----5-----5--6--|-5-----5-----5--6--|-1---0--1--0--1s3-4-|
A|----0-----0--------|----0-----0--------|----0-----0--------|-1---0--1--0--1s3-4-|
      *     *             *     *             *     *              *     *

-----------------------------------------------------------------------------------------
                                      VERSE (00:23-00:41)
-----------------------------------------------------------------------------------------

Guitars 1 and 2 (w/ dist)

E|-------|--------|-------|--------------|-------|--------------|-------|
B|-------|--------|-------|--------------|-------|--------------|-------|
G|-------|--------|-------|--------------|-------|--------------|-------|
D|-------|--------|-------|--------------|-------|--------------|-------|
A|-1-----|---2----|s6-----|-2---2---1----|-------|--------------|-------|
E|-1-----|---2----|s6-----|-2---2---1----|-------|--------------|-------|
A|-1-----|---2----|s6-----|-2---2---1----|-------|-2~~s6~~~0----|-------|

E|-------------|------|-------------|------|-------------|------|-------------|-----|
B|-------------|------|-------------|------|-------------|------|-------------|-----|
G|-------------|------|-------------|------|-------------|------|-------------|-----|
D|-------------|------|-------------|------|-------------|------|-------------|-----|
A|-2---2---1---|------|-2---2---6---|------|-2---2---1---|-1----|-------------|-----|
E|-2---2---1---|------|-2---2---6---|------|-2---2---1---|-1----|-------------|-----|
A|-2---2---1---|------|-2---2---6---|------|-2---2---1---|-1----|-2~~s6~~~0---|-----|

-----------------------------------------------------------------------------------------
                                    PRE-CHORUS (00:41-00:51)
-----------------------------------------------------------------------------------------

Guitars 1 and 2 (w/ dist)

E|-----------------|-----------------|-------------------|-------------------------|
B|-----------------|-----------------|-------------------|-------------------------|
G|-----------------|-----------------|-------------------|-------------------------|
D|-9-9-9-5-5-5-4-4-|-4-4-4-4-4-4-4-4-|-2-2-2-4-4-4-10-10-|-10-10-10-10-10-10-10-10-| x2
A|-x-x-x-x-x-x-x-x-|-x-x-x-x-x-x-x-x-|-x-x-x-x-x-x-x--x--|-x--x--x--x--x--x--x--x--|
E|-7-7-7-3-3-3-2-2-|-2-2-2-2-2-2-2-2-|-0-0-0-2-2-2-8--8--|-8--8--8--8--8--8--8--8--|
A|-----------------|-----------------|-------------------|-------------------------|

-----------------------------------------------------------------------------------------
                                    CHORUS (00:51-01:36)
-----------------------------------------------------------------------------------------

Guitars 1 and 2 (w/ dist)

E|-------------|------|-------------|------|-------------|------|-------------|------|
B|-------------|------|-------------|------|-------------|------|-------------|------|
G|-------------|------|-------------|------|-------------|------|-------------|------|
D|-------------|------|-------------|------|-------------|------|-------------|------|
A|-7---3---2---|------|-0---2---8---|------|-7---3---2---|------|-0---2---8s--|------|
E|-7---3---2---|------|-0---2---8---|------|-7---3---2---|------|-0---2---8s--|------|
A|-7---3---2---|------|-0---2---8---|------|-7---3---2---|------|-0---2---8s--|------|
                                                                          wide slide here

E|-----------------|-----------------|-----------------|-----------------|
B|-----------------|-----------------|-----------------|-----------------|
G|-----------------|-----------------|-----------------|-----------------|
D|-----------------|-----------------|-----------------|-----------------| x2
A|-7-7-7-3-3-3-2-2-|-2-2-2-2-2-2-2-2-|-0-0-0-2-2-2-8-8-|-8-8-8-8-8-8-8-8-|
E|-7-7-7-3-3-3-2-2-|-2-2-2-2-2-2-2-2-|-0-0-0-2-2-2-8-8-|-8-8-8-8-8-8-8-8-|
A|-7-7-7-3-3-3-2-2-|-2-2-2-2-2-2-2-2-|-0-0-0-2-2-2-8-8-|-8-8-8-8-8-8-8-8-|

E|-------------------|-------------------|-------------------|--------------------|
B|-------------------|-------------------|-------------------|--------------------|
G|-------------------|-------------------|-------------------|--------------------|
D|-------------------|-------------------|-------------------|--------------------| x2
A|-------------------|-------------------|-------------------|-1------1-----1s3---|
E|-5-----5-----5--6--|-5-----5-----5--6--|-5-----5-----5--6--|-1---0--1--0--1s3---|
A|----0-----0--------|----0-----0--------|----0-----0--------|-1---0--1--0--1s3---|
      *     *             *     *             *     *              *     * 

E|----------------|--------------------|--------------------|-----------------|
B|----------------|--------------------|--------------------|-----------------|
G|----------------|--------------------|--------------------|-----------------|
D|-7--------------|--------------------|--------------------|-----------------|
A|-x--------------|--------------------|--------------------|-1-----1-----1s3-|
E|-5--------------|-5h6-5--------------|-5h6-5--------------|-1--0--1--0--1s3-|
A|----0-0-0-0-0-0-|--------0-0-0-0-0-0-|--------0-0-0-0-0-0-|-1--0--1--0--1s3-|
      * * * * * *          * * * * * *          * * * * * *      *     *
E|----------------|--------------------|--------------------|-------------------|
B|----------------|--------------------|--------------------|-------------------|
G|----------------|--------------------|--------------------|-------------------|
D|-7--------------|--------------------|--------------------|-------------------|
A|-x--------------|--------------------|--------------------|-1-----1-----1s3-4-|
E|-5--------------|-5h6-5--------------|-5h6-5--------------|-1--0--1--0--1s3-4-|
A|----0-0-0-0-0-0-|--------0-0-0-0-0-0-|--------0-0-0-0-0-0-|-1--0--1--0--1s3-4-|
      * * * * * *          * * * * * *          * * * * * *      *     *
                                
-----------------------------------------------------------------------------------------
                                     VERSE 2 (01:36-01:55)
-----------------------------------------------------------------------------------------
                                         same as VERSE
-----------------------------------------------------------------------------------------
                                  PRE-CHORUS 2 (01:55-02:05)
-----------------------------------------------------------------------------------------
                                       same as PRE-CHORUS
-----------------------------------------------------------------------------------------
                                     CHORUS 2 (02:05-02:29)
-----------------------------------------------------------------------------------------
                                         same as CHORUS
-----------------------------------------------------------------------------------------
                                     BRIDGE (02:29-3:30)
-----------------------------------------------------------------------------------------

Guitar 1 (w/ clean and reverb) (Let ring all notes)

E|----------------------|-----------------|----------------------|-----------------|
B|----------------------|-----------------|----------------------|-----------------|
G|----------------------|-----------------|----------------------|-----------------|
D|----7------8------10--|-----8------7br--|----7------8------10--|-----8------7br--| 
A|-0------0------0------|--0------0-------|-0------0------0------|--0------0-------|  
E|----------------------|-----------------|----------------------|-----------------|\  
A|----------------------|-----------------|----------------------|-----------------| \
                                                                                     x4
E|----------------------|-----------------|----------------------|-----------------| /
B|----------------------|-----------------|----------------------|-----------------|/
G|----------------------|-----------------|----------------------|-----------------|
D|----7------8------10--|-----8------7br--|----7------8------10--|-----8-----10br--|
A|-0------0------0------|--0------0-------|-0------0------0------|--0-----0--------|
E|----------------------|-----------------|----------------------|-----------------|
A|----------------------|-----------------|----------------------|-----------------|

Guitar 2 (w/ clean and reverb) starts 4 bars later after guitar 1

E|----------------------|-----------------|----------------------|-----------------|
B|----------------------|-----------------|----------------------|-----------------|
G|----------------------|-----------------|------------------10--|-----9-----7br---|
D|----7------8-----10---|-----8------7br--|----7------8----------|-----------------| 
A|----------------------|-----------------|----------------------|-----------------|
E|----------------------|-----------------|----------------------|-----------------|
A|----------------------|-----------------|----------------------|-----------------|     

E|----------------------|-----------------|----------------------|-----------------|
B|----------------------|-----------------|----------------------|-----------------| 
G|----------------12----|----10------9br--|----------------------|-----------------|
D|----7------8----------|-----------------|----7------8------5---|-----7-----3br---|
A|----------------------|-----------------|----------------------|-----------------|
E|----------------------|-----------------|----------------------|-----------------|
A|----------------------|-----------------|----------------------|-----------------|

Guitar 1 and 2 (w/ dist)

E|--------------|
B|--------------|
G|--------------|
D|--------------|
A|--------------|
E|xxxxxxxxxxxxxx|
A|xxxxxxxxxxxxxx|
  pick scratch

E|----------------------|---------------------|
B|----------------------|---------------------|
G|----------------------|---------------------|
D|----------------------|---------------------| x3
A|----------------------|---------------------|
E|----5------6------8---|------6------5h6p5---|
A|-0------0------0------|---0------0----------|
   *      *      *          *      *
E|----------------------|---------------------|
B|----------------------|---------------------|
G|----------------------|---------------------|
D|----------------------|---------------------|
A|----------------------|---------------------|
E|----5------6------8---|------5h6------------|
A|-0------0------0------|---0--------1b-------|
   *      *      *          *     
E|----------------------|---------------------|
B|----------------------|---------------------|
G|----------------------|---------------------|
D|----------------------|---------------------| x3
A|----------------------|---------------------|
E|----5------6------8---|------6------5h6p5---|
A|-0------0------0------|---0------0----------|
   *      *      *          *      * 
E|-------------------------|--------------------|
B|-------------------------|--------------------|
G|-------------------------|--------------------|
D|-------------------------|--------------------|
A|-------------------------|--------------------|
E|-5--5--5--6--6--6--8--8--|-8--8--5h6p5--5b----|
A|-------------------------|--------------------|
   *  *  *     *  *     *    *  *         + (pinch note: A)

-----------------------------------------------------------------------------------------
                                      OUTRO (3:30-4:02)
-----------------------------------------------------------------------------------------

Guitars 1 and 2 (w/ dist)

E|--------------------------|-------------------|
B|--------------------------|-------------------|
G|--------------------------|-------------------|
D|--------------------------|-------------------| x7
A|-0--1--1--0--1--1--0--1---|-----0---0--1------|
E|-0--1--1--0--1--1--0--1---|-----0---0--1------|
A|-0--1--1--0--1--1--0--1---|-----0---0--1------|
   *  *  *  *  *  *  *  *         *   *  *
E|--------------------------|-------------------|
B|--------------------------|-------------------|
G|--------------------------|-------------------|
D|--------------------------|-------------------|
A|-0--1--1--0--1--1--0--1---|-----0-------------|
E|-0--1--1--0--1--1--0--1---|-----0-------------|
A|-0--1--1--0--1--1--0--1---|-----0----1s12s1---|
   *  *  *  *  *  *  *  *         * 
E|--------------------------|-------------------|
B|--------------------------|-------------------|
G|--------------------------|-------------------|
D|--------------------------|-------------------| x3
A|--------------------------|-----0---0---------|
E|--------------------------|-----0---0---------|
A|-0--1--1--0--1--1--0--1---|-----0---0--1b-----|
                                  *   *
E|--------------------------|-------------------|
B|--------------------------|-------------------|
G|--------------------------|-------------------|
D|--------------------------|-------------------| 
A|--------------------------|-----0---0--1------|
E|--------------------------|-----0---0--1------|
A|-0--1--1--0--1--1--0--1---|-----0---0--1------|
                                  *   *  *


*****************************************************************************************
*                                       #10 RIZZO                                       *
*****************************************************************************************

Riff 1 (w /dist)

D|-------------------------------------------|
A|-------------------------------------------|
F|-------------------------------------------|
C|-------------------------------------------|
G|-------------------------------------------|
D|-------------------------------------------|
G|-2--2--2--2--0---2--2--2--2--0---2--2--0---|
   *  *  *  *  *   *  *  *  *  *   *  *  *

Riff 1 fill 1 (w /dist)

D|-----------------------------------------|
A|-----------------------------------------|
F|-----------------------------------------|
C|-----------------------------------------|
G|-----------------------------------------|
D|---------------------------------5---6---| - hard to hear these two notes
G|-2--2--2--2--0---2--2--2--2--0-----------|   
   *  *  *  *  *   *  *  *  *  *

Riff 2 (w /dist)

D|------------------|--------------------|
A|------------------|--------------------|
F|------------------|--------------------|
C|------------------|--------------------|
G|------------------|--------------------|
D|-2-----1-----1----|-0-----0---0----0---|
G|-2-----1-----1----|-0-----0---0----0---|
                            *   *    *

Riff 3 (w /dist)

D|------------------------------|------------------------|
A|------------------------------|------------------------|
F|------------------------------|------------------------|
C|------------------------------|------------------------|
G|---------------12--11--12--11-|------------------14----|
D|------------------------------|------------------------|
G|-0-0-0--0-0-0-----------------|-0-0-0--0-0-0--15----15-|
   * * *  * * *                   * * *  * * *            
D|-----------------|----------|
A|-----------------|----------|
F|-----------------|----------|
C|-----------------|----------|
G|-------14--------|----------|
D|-14-----------14-|----------|
G|----15----15-----|----15s---|
                     slide out downwards

Riff 4 (w /dist)

D|---------------------|--------------|--------------------|--------------|
A|---------------------|--------------|--------------------|--------------|
F|---------------------|--------------|--------------------|--------------|
C|---------------------|--------------|--------------------|--------------|
G|-----------------11--|---------11---|------------11------|----11--------|
D|-0--0--0---9---------|----9---------|-0--0--0--------9---|----------9---|
G|-0--0--0-------------|--------------|-0--0--0------------|--------------|
   *  *  *                              *  *  *

Song Structure
INTRO
Riff 1 x8

VERSE
Riff 1 x3
Riff 1 fill 1 x1
Riff 1 x4

CHORUS
Riff 2 x4
Riff 3 x4

VERSE 2
Riff 1 x3
Riff 1 fill 1 x1
Riff 1 x4

CHORUS 2
Riff 2 x8
Riff 3 x4

BRIDGE
Riff 4 x8

VERSE 3
Riff 1 x3
Riff 1 fill 1 x1
Riff 1 x4

CHORUS 3
Riff 2 x8
Riff 3 x4

OUTRO
Riff 3 x11
Riff 3 x2 (fade out)


*****************************************************************************************
*                                       #11 SPHERE                                      *
*****************************************************************************************

-----------------------------------------------------------------------------------------
                                    INTRO (00:00-00:14)
-----------------------------------------------------------------------------------------

Guitar 1 (w/ dist)

E|-------------------|------------|-------------------|-----------------------------|
B|-------------------|------------|-------------------|-----------------------------|
G|-------------------|------------|-------------------|-----------------------------|
D|-------------------|------------|-------------------|-----------------------------|
A|-------------------|------------|-------------------|-0----1----0---1----0----1---|
E|-0--1--------------|------------|-0--1--------------|-0----1----0---1----0----1---|
A|-0--1--------------|--------3~~~|-0--1--------------|-0----1----0---1----0----1---|
   *  *                       +     *  * 
E|-------------------|------------|-------------------|---------------------------|
B|-------------------|------------|-------------------|---------------------------|
G|-------------------|------------|-------------------|---------------------------|
D|-------------------|------------|-------------------|---------------------------|
A|-------------------|------------|-------------------|-------------1----3----4---|
E|-0--1--------------|------------|-0--1--------------|-------0--0--1----3----4---|
A|-0--1--------------|--------3~~~|-0--1--------------|-------0--0--1----3----4---|
   *  *                       +     *  *                      *  *

Guitar 2 (w/ dist)

E|------------------------|----------------------|------------------------|
B|------------------------|----------------------|------------------------|
G|------------------------|----------------------|------------------------|
D|------------------------|----------------------|------------------------|
A|------------------------|----------------------|------------------------|
E|-0--1---0--1-1-1--0--1--|-0--1---0--1-1-0------|-0--1---0--1-1-1--0--1--|
A|-0--1---0--1-1-1--0--1--|-0--1---0--1-1-0--3~~~|-0--1---0--1-1-1--0--1--|
   *  *   *  * * *  *  *    *  *   *  * * *  +     *  *   *  * * *  *  * 
E|-----------------------|------------------------|----------------------|
B|-----------------------|------------------------|----------------------|
G|-----------------------|------------------------|----------------------|
D|-----------------------|------------------------|----------------------|
A|-0---1---0--1---0---1--|------------------------|----------------------|
E|-0---1---0--1---0---1--|-0--1---0--1-1-1--0--1--|-0--1---0--1-1-0------|
A|-0---1---0--1---0---1--|-0--1---0--1-1-1--0--1--|-0--1---0--1-1-0--3~~~|
                           *  *   *  * * *  *  *    *  *   *  * * *  +
E|------------------------|------------------------|
B|------------------------|------------------------|
G|------------------------|------------------------|
D|------------------------|------------------------|
A|------------------------|------------1---3---4---|
E|-0--1---0--1-1-1--0--1--|-0--1---0-0-1---3---4---|
A|-0--1---0--1-1-1--0--1--|-0--1---0-0-1---3---4---|
   *  *   *  * * *  *  *    *  *   * * 

-----------------------------------------------------------------------------------------
                                  VERSE (00:14-00:40)
-----------------------------------------------------------------------------------------

Guitar 1 and 2 (w/ dist)
                                                                         ----|
E|------------------------|----------------------|------------------------|  |
B|------------------------|----------------------|------------------------|  |
G|------------------------|----------------------|------------------------|  |
D|------------------------|----------------------|------------------------|  |
A|------------------------|----------------------|------------------------|  |
E|-0--1---0--1-1-1--0--1--|-0--1---0--1-1-0------|-0--1---0--1-1-1--0--1--|  |
A|-0--1---0--1-1-1--0--1--|-0--1---0--1-1-0--3~~~|-0--1---0--1-1-1--0--1--|  |
   *  *   *  * * *  *  *    *  *   *  * * *  +     *  *   *  * * *  *  *     |
E|-----------------------|------------------------|----------------------|   |
B|-----------------------|------------------------|----------------------|   |
G|-----------------------|------------------------|----------------------|   |
D|-----------------------|------------------------|----------------------|   | x2
A|-0---1---0--1---0---1--|------------------------|----------------------|   |
E|-0---1---0--1---0---1--|-0--1---0--1-1-1--0--1--|-0--1---0--1-1-0------|   |
A|-0---1---0--1---0---1--|-0--1---0--1-1-1--0--1--|-0--1---0--1-1-0--3~~~|   |
                           *  *   *  * * *  *  *    *  *   *  * * *  +       |
E|------------------------|------------------------|                         |
B|------------------------|------------------------|                         |
G|------------------------|------------------------|                         |
D|------------------------|------------------------|                         |
A|------------------------|------------1---3---4---|                         |
E|-0--1---0--1-1-1--0--1--|-0--1---0-0-1---3---4---|                         |
A|-0--1---0--1-1-1--0--1--|-0--1---0-0-1---3---4---|                         |
   *  *   *  * * *  *  *    *  *   * *                                   ----|

-----------------------------------------------------------------------------------------
                                  CHORUS (00:40-00:52)
-----------------------------------------------------------------------------------------

Guitar 1 and 2 (w/ dist)

E|------------------------|----------------------|-------------------------|
B|------------------------|----------------------|-------------------------|
G|------------------------|----------------------|-------------------------|
D|------------------------|----------------------|-------------------------|
A|------------------------|----------------------|-------------------------|
E|------------------------|----------------------|-------------------------|
A|-3--4---3--4-4-4--3--4--|-3--4---3--4-4-3--4~~~|-3--4---3--4-4-4--3--4~~~|
                                             +                         +
E|-----------------------|------------------------|----------------------|
B|-----------------------|------------------------|----------------------|
G|-----------------------|------------------------|----------------------|
D|-----------------------|------------------------|----------------------|
A|-0---1---0--1---0---1--|------------------------|----------------------|
E|-0---1---0--1---0---1--|------------------------|----------------------|
A|-0---1---0--1---0---1--|-3--4---3--4-4-4--3--4--|-3--4---3--4-4-3--4---|
   *   *   *  *   *   * 
E|------------------------|------------------------|
B|------------------------|------------------------|
G|------------------------|------------------------|
D|------------------------|------------------------|
A|------------------------|------------3---5---6---|
E|------------------------|--------3-3-3---5---6---|
A|-3--4---3--4-4-4--3--4--|-3--4---3-3-3---5---6---|
                                   * *
-----------------------------------------------------------------------------------------
                                  VERSE 2 (00:52-01:08)
-----------------------------------------------------------------------------------------

Guitar 1 and 2 (w/ dist)

E|------------------------|----------------------|------------------------|
B|------------------------|----------------------|------------------------|
G|------------------------|----------------------|------------------------|
D|------------------------|----------------------|------------------------|
A|------------------------|----------------------|------------------------|
E|-0--1---0--1-1-1--0--1--|-0--1---0--1-1-0------|-0--1---0--1-1-1--0--1--|
A|-0--1---0--1-1-1--0--1--|-0--1---0--1-1-0--3~~~|-0--1---0--1-1-1--0--1--|
   *  *   *  * * *  *  *    *  *   *  * * *  +     *  *   *  * * *  *  * 
E|-----------------------|------------------------|----------------------|
B|-----------------------|------------------------|----------------------|
G|-----------------------|------------------------|----------------------|
D|-----------------------|------------------------|----------------------|
A|-0---1---0--1---0---1--|------------------------|----------------------|
E|-0---1---0--1---0---1--|-0--1---0--1-1-1--0--1--|-0--1---0--1-1-0------|
A|-0---1---0--1---0---1--|-0--1---0--1-1-1--0--1--|-0--1---0--1-1-0--3~~~|
                           *  *   *  * * *  *  *    *  *   *  * * *  +
E|------------------------|------------------------|
B|------------------------|------------------------|
G|------------------------|------------------------|
D|------------------------|------------------------|
A|------------------------|------------1---3---4---|
E|-0--1---0--1-1-1--0--1--|-0--1---0-0-1---3---4---|
A|-0--1---0--1-1-1--0--1--|-0--1---0-0-1---3---4---|
   *  *   *  * * *  *  *    *  *   * * 
E|----------------------------------------------|
B|----------------------------------------------|
G|----------------------------------------------|
D|----------------------------------------------|
A|-0----6----0---------0----6----1----0---------|
E|-0----6----0---------0----6----1----0---------|
A|-0----6----0---------0----6----1----0---------|

-----------------------------------------------------------------------------------------
                                  BRIDGE (01:08-1:52)
-----------------------------------------------------------------------------------------

Guitar 1 and 2 (w/ dist)

E|---------------------------------|---------------------------------|
B|---------------------------------|---------------------------------|
G|---------------------------------|---------------------------------|
D|---------------------------------|---------------------------------|
A|---------------------------------|---------------------------------|
E|---------------------------------|---------6-6-5-5-5-5-------------|
A|-0-0-0-0-0-0-0-0-----0-0-0-0-----|-5-5-5-5-------------6-6-8-8-8-8-|
   * * * * * * * *     * * * *       * * * * * * * * * * * * * * * *
E|---------------------------------|---------------------------------|
B|---------------------------------|---------------------------------|
G|---------------------------------|---------------------------------|
D|---------------------------------|---------------------------------|
A|---------------------------------|-------------------------8-------|
E|---------------------------------|---------6-6-5-5-5-5-----8-------|
A|-0-0-0-0-0-0-0-0-----0-0-0-0-----|-5-5-5-5-------------6-6-8-------|
   * * * * * * * *     * * * *       * * * * * * * * * * * *
E|---------------------------------|---------------------------------|
B|---------------------------------|---------------------------------|
G|---------------------------------|---------------------------------|
D|---------------------------------|---------------------------------|
A|---------------------------------|---------------------------------|
E|---------------------------------|---------6-6-5-5-5-5-------------|
A|-0-0-0-0-0-0-0-0-----0-0-0-0-----|-5-5-5-5-------------6-6-8-8-8-8-|
   * * * * * * * *     * * * *       * * * * * * * * * * * * * * * *
E|---------------------------------|---------------------------------|
B|---------------------------------|---------------------------------|
G|---------------------------------|---------------------------------|
D|---------------------------------|---------------------------------|
A|---------------------------------|---------------------------------|
E|---------------------------------|---------6-6-5-5-5-5-------------|
A|-0-0-0-0-0-0-0-0-----0-0-0-0-----|-5-5-5-5-------------6-6-8b~~~~~~|
   * * * * * * * *     * * * *       * * * * * * * * * * * * +

E|------------------------------|---------------------------|
B|------------------------------|---------------------------|
G|------------------------------|---------------------------|
D|------------------------------|---------------------------|
A|-0--0-6---0-------------------|-0---6---0--1--------------|
E|-0--0-6---0--0-0----0-0----0--|-0---6---0--1--0-0-0-0-0-0-|
A|-0--0-6---0--0-0----0-0----0--|-0---6---0--1--0-0-0-0-0-0-|
               * *    * *    *                  * * * * * *
E|------------------------------|---------------------------------|
B|------------------------------|---------------------------------|
G|------------------------------|---------------------------------|
D|------------------------------|---------------------------------|
A|-0--0-6---0-------------------|---------------------------------|
E|-0--0-6---0--0-0----0-0----0--|---------6-6-5-5-5-5-------------|
A|-0--0-6---0--0-0----0-0----0--|-5-5-5-5-------------6-6-8-8-8-8-|
               * *    * *    *   
E|------------------------------|---------------------------|
B|------------------------------|---------------------------|
G|------------------------------|---------------------------|
D|------------------------------|---------------------------|
A|-0--0-6---0-------------------|-0---6---0--1--------------|
E|-0--0-6---0--0-0----0-0----0--|-0---6---0--1--0-0-0-0-0-0-|
A|-0--0-6---0--0-0----0-0----0--|-0---6---0--1--0-0-0-0-0-0-| 
               * *    * *    *                  * * * * * *         
E|------------------------------|---------------------------------| 
B|------------------------------|---------------------------------|
G|------------------------------|---------------------------------|
D|------------------------------|---------------------------------|
A|-0--0-6---0-------------------|---------------------------------|
E|-0--0-6---0--0-0----0-0----0--|---------6-6-5-5-5-5-------------|
A|-0--0-6---0--0-0----0-0----0--|-5-5-5-5-------------6-6-8b~~~~~~|
               * *    * *    *                            +

E|------------------------------|---------------------------------|  
B|------------------------------|---------------------------------|   
G|------------------------------|---------------------------------|     
D|------------------------------|---------------------------------|
A|-0--0-6---0-------------------|-0---6---0--1--------------------|  
E|-0--0-6---0--0-0----0-0----0--|-0---6---0--1--0-0-0-0-0-0-------|\
A|-0--0-6---0--0-0----0-0----0--|-0---6---0--1--0-0-0-0-0-0-------| \
               * *    * *    *                  * * * * * *          x2
E|------------------------------|---------------------------------| /
B|------------------------------|---------------------------------|/
G|------------------------------|---------------------------------|
D|------------------------------|---------------------------------|
A|-0--0-6---0-------------------|---------------------------------|
E|-0--0-6---0--0-0----0-0----0--|---------6-6-5-5-5-5-------------|
A|-0--0-6---0--0-0----0-0----0--|-5-5-5-5-------------6-6-8-8-8-8-|
               * *    * *    * 

E|----------------------------------------------|
B|----------------------------------------------|
G|----------------------------------------------|
D|----------------------------------------------|
A|-0----6----0---------0----6----1----0---------|
E|-0----6----0---------0----6----1----0---------|
A|-0----6----0---------0----6----1----0---------|

-----------------------------------------------------------------------------------------
                                  BRIDGE 2 (01:52-2:38)
-----------------------------------------------------------------------------------------

I. Guitar 1 and 2 (w/ dist)

E|-------|--------------------|------------|-------------------|
B|-------|--------------------|------------|-------------------|
G|-------|--------------------|------------|-------------------|
D|-7-----|--------------------|------------|-------------------|
A|-x-----|---------1s3-----1--|-------1s3--|-0h1-----1---------|
E|-5-----|-0---0---1s3--0--1--|-------1s3--|-0h1--0--1---------|
A|-------|-0---0---1s3--0--1--|-------1s3--|-0h1--0--1---------|
           *   *        *                         *
E|---------------------------|---------------------|------------|------------------|
B|---------------------------|---------------------|------------|------------------|
G|---------------------------|---------------------|------------|------------------|
D|---------------------------|---------------------|------------|------------------|
A|---------------------------|-1s3-----1-----------|-------1s3--|-0h1-----1--------|
E|---------------------------|-1s3--0--1-----------|-------1s3--|-0h1--0--1--------|
A|-0-1-1--1--1--0-1-1--1--1--|-1s3--0--1-----------|-------1s3--|-0h1--0--1--------|
   * * *  *  *  * * *  *  *         *                                  *
E|------------|------------------|------------|------------------|
B|------------|------------------|------------|------------------|
G|------------|------------------|------------|------------------|
D|--------s8--|------------------|------------|------------------|
A|---------x--|-0h1-----1--------|-------1s3--|-0h1-----1--------|
E|--------s6--|-0h1--0--1--------|-------1s3--|-0h1--0--1--------|
A|------------|-0h1--0--1--------|-------1s3--|-0h1--0--1--------|
                     *                               *
E|-------------------------|-----------------------|------------|------------------|
B|-------------------------|-----------------------|------------|------------------|
G|-------------------------|-----------------------|------------|------------------|
D|-------------------------|-----------------------|------------|------------------|
A|-------------------------|-1s3-----1-------------|-------1s3--|-0h1-----1--------|
E|--------------1---0---1--|-1s3--0--1-------------|-------1s3--|-0h1--0--1--------|
A|-0-0-0--0--0--1---0---1--|-1s3--0--1-------------|-------1s3--|-0h1--0--1--------|
   * * *  *  *  *   *   *         *                                    *
E|-------------|
B|-------------|
G|-------------|
D|--------8////|
A|--------x////|
E|--------6////|
A|-------------|
     w/ octaver +2 octave up

E|----------------------|------------------------|
B|----------------------|------------------------|
G|----------------------|------------------------|\
D|----------------------|------------------------| \
A|----------------------|------------------------|  \
E|-0h1------------------|------------------------|   \
A|-0h1--0--0---0--0--0--|-0--0--0--0--0--0--1s3--|    x2
        *      *  *       *     *  *  *  *            /
E|----------------------|---------------------------|/
B|----------------------|---------------------------|
G|----------------------|---------------------------|
D|----------------------|---------------------------|
A|----------------------|---------------------------|
E|-0h1------------------|---------------------------|
A|-0h1--0--0---0--0--0--|-0--0--0--0--0-0-0--0-0-0--|
        *      *  *       *     *  *  * * *  * * * 

II. Guitar 1 and 2 (w/ dist)

E|----------------------|------------------------|
B|----------------------|------------------------|
G|----------------------|------------------------|\
D|----------------------|------------------------| \
A|----------------------|------------------------|  \
E|-0h1------------------|------------------------|   \
A|-0h1--0--0---0--0--0--|-0--0--0--0--0--0--1s3--|    x2
        *      *  *       *     *  *  *  *            /
E|----------------------|---------------------------|/
B|----------------------|---------------------------|
G|----------------------|---------------------------|
D|----------------------|---------------------------|
A|----------------------|---------------------------|
E|-0h1------------------|---------------------------|
A|-0h1--0--0---0--0--0--|-0--0--0--0--0-0-0--0-0-0--|
        *      *  *       *     *  *  * * *  * * * 

    Guitar 3 (w/ dist)

E|-------------------------------|---------------------------------|
B|-------------------------------|---------------------------------|
G|-------------------------------|---------------------------------|
D|-s8----7---7---7---7---7---7---|-7---7---7---7---7---7---7---7---|
A|-sx----x---x---x---x---x---x---|-x---x---x---x---x---x---x---x---|
E|-s6----5---5---5---5---5---5---|-5---5---5---5---5---5---5---5---|
A|-------------------------------|---------------------------------|

E|---------------------------------|---------------------------------|
B|---------------------------------|---------------------------------|
G|---------------------------------|---------------------------------|
D|-8---8---8---8---8---8---8---8---|-8---8---8---8---8---8---8---8---|
A|-x---x---x---x---x---x---x---x---|-x---x---x---x---x---x---x---x---|
E|-6---6---6---6---6---6---6---6---|-6---6---6---6---6---6---6---6---|
A|---------------------------------|---------------------------------|

E|---------------------------------|---------------------------------|
B|---------------------------------|---------------------------------|
G|---------------------------------|---------------------------------|
D|-7---7---7---7---7---7---7---7---|-7---7---7---7---7---7---7---7---|
A|-x---x---x---x---x---x---x---x---|-x---x---x---x---x---x---x---x---|
E|-5---5---5---5---5---5---5---5---|-5---5---5---5---5---5---5---5---|
A|---------------------------------|---------------------------------|

E|---------------------------------|-------------------------------|
B|---------------------------------|------12--------12--------12---|
G|---------------------------------|-15--------15--------15--------|
D|-8---8---8---8---8---8---8---8---|-------------------------------|
A|-x---x---x---x---x---x---x---x---|-------------------------------|
E|-6---6---6---6---6---6---6---6---|-------------------------------|
A|---------------------------------|-------------------------------|

-----------------------------------------------------------------------------------------
                                  OUTRO (2:38-4:21)
-----------------------------------------------------------------------------------------

Guitar 1 and 2 (w/ dist)

E|------------------------|----------------------|------------------------|
B|------------------------|----------------------|------------------------|
G|------------------------|----------------------|------------------------|
D|------------------------|----------------------|------------------------|
A|------------------------|----------------------|------------------------|
E|-0--1---0--1-1-1--0--1--|-0--1---0--1-1-0------|-0--1---0--1-1-1--0--1--|
A|-0--1---0--1-1-1--0--1--|-0--1---0--1-1-0--3~~~|-0--1---0--1-1-1--0--1--|
   *  *   *  * * *  *  *    *  *   *  * * *  +     *  *   *  * * *  *  * 
E|-----------------------|------------------------|----------------------|
B|-----------------------|------------------------|----------------------|
G|-----------------------|------------------------|----------------------|
D|-----------------------|------------------------|----------------------|
A|-0---1---0--1---0---1--|------------------------|----------------------|
E|-0---1---0--1---0---1--|-0--1---0--1-1-1--0--1--|-0--1---0--1-1-0------|
A|-0---1---0--1---0---1--|-0--1---0--1-1-1--0--1--|-0--1---0--1-1-0--3~~~|
                           *  *   *  * * *  *  *    *  *   *  * * *  +
E|------------------------|------------------------|
B|------------------------|------------------------|
G|------------------------|------------------------|
D|------------------------|------------------------|
A|------------------------|------------1---3---4---|
E|-0--1---0--1-1-1--0--1--|-0--1---0-0-1---3---4---|
A|-0--1---0--1-1-1--0--1--|-0--1---0-0-1---3---4---|
   *  *   *  * * *  *  *    *  *   * * 
E|------------------------|----------------------|------------------------|
B|------------------------|----------------------|------------------------|
G|------------------------|----------------------|------------------------|
D|------------------------|----------------------|------------------------|
A|------------------------|----------------------|------------------------|
E|------------------------|----------------------|------------------------|
A|-0--1---0--1-1-1--0--1--|-0--1---0--1-1-0--3~~~|-0--1---0--1-1-1--0--1--|
                                             +
E|-----------------------|------------------------|----------------------|
B|-----------------------|------------------------|----------------------|
G|-----------------------|------------------------|----------------------|
D|-----------------------|------------------------|----------------------|
A|-0---1---0--1---0---1--|------------------------|----------------------|
E|-0---1---0--1---0---1--|------------------------|----------------------|
A|-0---1---0--1---0---1--|-0--1---0--1-1-1--0--1--|-0--1---0--1-1-0--3~~~|
   *   *   *  *   *   *                                              +
E|------------------------|-----------------------|
B|------------------------|-----------------------|
G|------------------------|-----------------------|
D|------------------------|-----------------------|
A|------------------------|------------1---3---4--|
E|------------------------|--------0-0-1---3---4--|
A|-0--1---0--1-1-1--0--1--|-0--1---0-0-1---3---4--|
                                   * *                                    ----|
E|------------------------|----------------------|------------------------|   |
B|------------------------|----------------------|------------------------|   |
G|------------------------|----------------------|------------------------|   |
D|------------------------|----------------------|------------------------|   |
A|------------------------|----------------------|------------------------|   |
E|------------------------|----------------------|------------------------|   |
A|-0--1---0--1-1-1--0--1--|-0--1---0--1-1-0--3~~~|-0--1---0--1-1-1--0--1--|   |
                                             +                                |
E|-----------------------|-----------------------|------------------------|   |
B|-----------------------|-----------------------|------------------------|   |
G|-----------------------|-----------------------|------------------------|   |
D|-----------------------|-----------------------|------------------------|   | x2
A|-0---1---0--1---0---1--|-0---1---0--1---0---1--|------------------------|   |
E|-0---1---0--1---0---1--|-0---1---0--1---0---1--|------------------------|   |
A|-0---1---0--1---0---1--|-0---1---0--1---0---1--|-0--1---0--1-1-1--0--1--|   |
   *   *   *  *   *   *    *   *   *  *   *   *                               |
E|----------------------|-------------------------|-----------------------|   |
B|----------------------|-------------------------|-----------------------|   |
G|----------------------|-------------------------|-----------------------|   |
D|----------------------|-------------------------|-----------------------|   |
A|----------------------|-------------------------|------------1---3---4--|   |
E|----------------------|-------------------------|--------0-0-1---3---4--|   |
A|-0--1---0--1-1-0--3~~~|--0--1---0--1-1-1--0--1--|-0--1---0-0-1---3---4--|   |
                    +                                      * *            ----|
E|--------|
B|--------|
G|--------|
D|--------|
A|-0------|
E|-0------|
A|-0------|


*****************************************************************************************
*                                     #12 FORCED LIFE                                   *
*****************************************************************************************

-----------------------------------------------------------------------------------------
                                     INTRO (00:00-00:25)
-----------------------------------------------------------------------------------------

I.  Guitars 1 and 2 (w/ dist)
                                                   -------------------|
E|-------------------------|-------------------------|                |
B|-------------------------|-------------------------|                |
G|-------------------------|-------------------------|                |
D|-------------------------|-------------------------|                |
A|-------------------------|-------------------------|                |
E|-------------------------|-------------------------|                |
A|-0-0-0----0-0-0----------|-0-0-0----0-0-0----------|                |
   * * *    * * *            * * *    * * *                           | x2
E|-------------------------|-------------------------------------|    |
B|-------------------------|-------------------------------------|    |
G|-------------------------|-------------------------------------|    |
D|-------------------------|-------------------------------------|    |
A|-------------------------|-------------------------------------|    |
E|-------------------------|-------------------------------------|    |
A|-0-0-0----0-0-0----------|-0-0-0----0-0-0----0-0-0----0-0-0----|    |
   * * *    * * *            * * *    * * *    * * *    * * *   ------|

II. Guitar 1 (w/ dist)

E|-------------------------------------|-------------------------------------|
B|-------------------------------------|-------------------------------------|
G|-------------------------------------|-------------------------------------|
D|-------------------------------------|-------------------------------------|
A|----------------------------6-6-5----|----------------------------6-6-5----|
E|-------------------5-5-5-------------|-------------------5-5-5-------------|\
A|-0-0-0----0-0-0----------------------|-0-0-0----0-0-0----------------------| \
   * * *    * * *    * * *    * * *      * * *    * * *    * * *    * * *       x2
E|-------------------------------------|-------------------------------------| /
B|-------------------------------------|-------------------------------------|/
G|-------------------------------------|-------------------------------------|
D|-------------------------------------|-------------------------------------|
A|----------------------------6-6-5----|-6-6-5-------------------------------|
E|-------------------5-5-5-------------|----------6-6-5----------------------|
A|-0-0-0----0-0-0----------------------|-------------------6-6-5----6-6-5----|
   * * *    * * *    * * *    * * *      * * *    * * *    * * *    * * *

   Guitar 2 (w/ dist)

E|-------------------------------------|-------------------------------------|
B|-------------------------------------|-------------------------------------|
G|-------------------------------------|-------------------------------------|
D|-------------------------------------|-------------------------------------|
A|----------------------------6-6-5----|----------------------------6-6-5----|
E|-------------------5-5-5-------------|-------------------5-5-5-------------|\
A|-0-0-0----0-0-0----------------------|-0-0-0----0-0-0----------------------| \
   * * *    * * *    * * *    * * *      * * *    * * *    * * *    * * *       x2
E|-------------------------------------|-------------------------------------| /
B|-------------------------------------|-------------------------------------|/
G|-------------------------------------|-------------------------------------|
D|-------------------------------------|-6-6-5-------------------------------|
A|----------------------------6-6-5----|----------6-6-5----------------------|
E|-------------------5-5-5-------------|-------------------------------------|
A|-0-0-0----0-0-0----------------------|-------------------6-6-5----6-6-5----|
   * * *    * * *    * * *    * * *      * * *    * * *    * * *    * * *

III.  Guitars 1 and 2 (w/ dist)

E|-------------------------|-------------------------|
B|-------------------------|-------------------------|
G|-------------------------|-------------------------|
D|-------------------------|-------------------------|
A|-------------------------|-------------------------|
E|-------------------------|-------------------------|
A|-0-0-0----0-0-0----------|-0-0-0----0-0-0----------|
   * * *    * * *            * * *    * * *

-----------------------------------------------------------------------------------------
                                    VERSE (00:25-00:51)
-----------------------------------------------------------------------------------------

Guitars 1 and 2 (w/ dist)

E|------------------------|---------------------|
B|------------------------|---------------------|
G|------------------------|---------------------|
D|------------------------|---------------------| x4
A|------------------------|---------------------|
E|------------------------|---------------------|
A|-0--4--1---0-0-0--0--0--|--0--0--0---0--0--0--|
             * * *  *  *     *  *  *   *  *  *
E|----------------------------|
B|----------------------------|
G|----------------------------|
D|----------------------------|
A|----------------------------|
E|----------------------------|
A|-4-4-4----4-4-4----1-1-1----|
   * * *    * * *    * * *
E|------------------------|---------------------|
B|------------------------|---------------------|
G|------------------------|---------------------|
D|------------------------|---------------------| x4
A|------------------------|---------------------|
E|------------------------|---------------------|
A|-0--4--1---0-0-0--0--0--|--0--0--0---0--0--0--|
             * * *  *  *     *  *  *   *  *  *
E|-------------------------|-------------------------|
B|-------------------------|-------------------------|
G|-------------------------|-------------------------|
D|-------------------------|-------------------------|
A|-------------------------|-------------------------|
E|-------------------------|-------------------------|
A|-0-0-0----0-0-0----------|-0-0-0----0-0-0----------|
   * * *    * * *            * * *    * * *

-----------------------------------------------------------------------------------------
                                    CHORUS (00:51-01:14)
-----------------------------------------------------------------------------------------

I. Guitar 1 (w/ dist)

E|------------------|---------------------|
B|------------------|---------------------|
G|------------------|---------------------|
D|------------------|---------------------| x3
A|-0----0--0---s4---|---4--4---4s6--6--6--|
E|-0----0--0---s4---|---4--4---4s6--6--6--|
A|-0----0--0---s4---|---4--4---4s6--6--6--|

E|------------------|---------------|
B|------------------|---------------|
G|------------------|---------------|
D|------------------|---------------|
A|-0----0--0---s4---|---4--4---10s--|
E|-0----0--0---s4---|---4--4---10s--|
A|-0----0--0---s4---|---4--4---10s--|
                               slide out downwards
   Guitar 2 (w/ dist)

E|------------------|-----------------------|-----------------|
B|------------------|-----------------------|-----------------|
G|------------------|-----------------------|-----------------|
D|-7----7--7--s11---|--11-11-11-11-11-11-11-|-7----7--7--s6---|
A|-x----x--x--sx----|--x--x--x--x--x--x--x--|-x----x--x--sx---|
E|-5----5--5--s9----|--9--9--9--9--9--9--9--|-5----5--5--s4---|
A|------------------|-----------------------|-----------------|

E|--------------------|------------------|--------------------|
B|--------------------|------------------|--------------------|
G|--------------------|------------------|--------------------|
D|--6--6--6--6--6--6--|-7----7--7---s6---|--6--6--6--6--6--6--|
A|--x--x--x--x--x--x--|-x----x--x---sx---|--x--x--x--x--x--x--|
E|--4--4--4--4--4--4--|-5----5--5---s4---|--4--4--4--4--4--4--|
A|--------------------|------------------|--------------------|

E|-----------------|-----------------|
B|-----------------|-----------------|
G|-----------------|-----------------|
D|s14---14-14-s11--|-11-11-11-11-----|
A|sx----x--x--sx---|-x--x--x--x--10s-|
E|s12---12-12-s9---|-9--9--9--9--10s-|
A|-----------------|-------------10s-|

II. Guitar 1 (w/ dist)

E|------------------|---------------------|
B|------------------|---------------------|
G|------------------|---------------------|
D|------------------|---------------------| x4
A|-0----0--0---s4---|---4--4---4s6--6--6--|
E|-0----0--0---s4---|---4--4---4s6--6--6--|
A|-0----0--0---s4---|---4--4---4s6--6--6--|

E|---------------------------|
B|---------------------------|
G|---------------------------|
D|---------------------------|
A|---------------------------|
E|---------------------------|
A|-6-6-6--0--4--1--0--1------|
   * * *  *  *  *  *  

   Guitar 2 (w/ dist)

E|-------------------------|-------------------------|-------------------------|
B|-------------------------|-------------------------|-------------------------|
G|-------------------------|-------------------------|-------------------------|
D|-14-14-14-14-14-14-15-15-|-15-15-15-15-15-15-15-15-|-14-14-14-14-14-14-15-15-|
A|-x--x--x--x--x--x--x--x--|-x--x--x--x--x--x--x--x--|-x--x--x--x--x--x--x--x--|
E|-12-12-12-12-12-12-13-13-|-13-13-13-13-13-13-13-13-|-12-12-12-12-12-12-13-13-|
A|-------------------------|-------------------------|-------------------------|

E|-------------------------|-------------------------|-------------------------|
B|-------------------------|-------------------------|-------------------------|
G|-------------------------|-------------------------|-------------------------|
D|-15-15-15-15-15-15-15-15-|-14-14-14-14-14-14-15-15-|-15-15-15-15-15-15s17s15-|
A|-x--x--x--x--x--x--x--x--|-x--x--x--x--x--x--x--x--|-x--x--x--x--x--x-sx-sx--|
E|-13-13-13-13-13-13-13-13-|-12-12-12-12-12-12-13-13-|-13-13-13-13-13-13s15s13-|
A|-------------------------|-------------------------|-------------------------|

E|-----------------------|-----------|-------------|
B|-----------------------|-----------|-------------|
G|-----------------------|-----------|-------------|
D|-14-14-14-14-14-14-9---|---s11-----|-------------|
A|-x--x--x--x--x--x--x---|---sx------|-------------|
E|-12-12-12-12-12-12-7---|---s9------|-------------|
A|-----------------------|-----------|-------------|

-----------------------------------------------------------------------------------------
                                   VERSE 2 (01:14-01:37)
-----------------------------------------------------------------------------------------

Guitars 1 and 2 (w/ dist)

E|------------------------|---------------------|
B|------------------------|---------------------|
G|------------------------|---------------------|
D|------------------------|---------------------| x8
A|------------------------|---------------------|
E|------------------------|---------------------|
A|-0--4--1---0-0-0--0--0--|--0--0--0---0--0--0--|
             * * *  *  *     *  *  *   *  *  *
E|-----------------------------|
B|-----------------------------|
G|-----------------------------|
D|-----------------------------|
A|-----------------------------|
E|-----------------------------|
A|-4-4-4--4-4-4--1-1-1--1-1-1--|
   * * *  * * *  * * *  * * *

-----------------------------------------------------------------------------------------
                                   CHORUS 2 (01:37-01:59)
-----------------------------------------------------------------------------------------
                                      same as CHORUS
-----------------------------------------------------------------------------------------
                                     BRIDGE (01:59-2:30)
-----------------------------------------------------------------------------------------

I. Guitars 1 and 2 (w/ dist)

E|--------|--------|------------|-------------------|
B|--------|--------|------------|-------------------|
G|--------|--------|------------|-------------------|
D|--------|--------|------------|-------------------|
A|-0------|-0------|------------|-------------------|
E|-0------|-0------|-xxxxxxxxxxx|xxxxx--------------|
A|-0------|-0------|-xxxxxxxxxxx|xxxxx--1-s12-s1----|
                       pick scratch

II. Guitar 1 (w/ dist)
                                                        ---------------------|
E|--------------------------------|-----------------------------------|      |
B|--------------------------------|-----------------------------------|      |
G|--------------------------------|-----------------------------------|      |
D|--------------------------------|-----------------------------------| x3   |
A|--------------------------------|-----------------------------------|      |
E|-----------8--5--9--6------7h10-|p7---8h11p8h11p8----12--9--13--10--|      |
A|-0-0-0--------------------------|-----------------------------------|      |
   * * *                                                                     | x2
E|--------------------------------|----------------------|                   |
B|--------------------------------|----------------------|                   |
G|--------------------------------|----------------------|                   |
D|--------------------------------|----------------------|                   |
A|--------------------------------|-------7-6------------|                   |
E|-------------------5b-----------|-5h8p5------------2b--|                   |
A|-0-0-0----0-0-0--------0-0-0----|-------------0h3------|                   | 
   * * *    * * *    +   * * *                       +  ---------------------|

   Guitar 2 (w/ dist)
                                                          -----------------------|
E|---------------------------------|---------------------------------------|     |
B|---------------------------------|---------------------------------------|     |
G|---------------------------------|---------------------------------------|     |
D|---------------------------------|---------------------------------------| x3  |
A|----------10--8--11--8------9h12-|p9---10h13p10h13p10----14--11--15--12--|     |
E|---------------------------------|---------------------------------------|     |
A|-0-0-0---------------------------|---------------------------------------|     |
   * * *                                                                         |
E|--------------------------------|-------------------------|                    |
B|--------------------------------|-------------------------|                    |
G|--------------------------------|-------------------------|                    |
D|--------------------------------|--------9-8--------------|                    |
A|--------------------------------|-7h10p7------------------|                    |
E|-------------------5b-----------|--------------------2b---|                    |
A|-0-0-0----0-0-0--------0-0-0----|---------------0h3-------|                    |
   * * *    * * *    +   * * *                         +  -----------------------|

III. Guitars 1 and 2 (w/ dist)

E|-------------------------|-------------------------|
B|-------------------------|-------------------------|
G|-------------------------|-------------------------|
D|-------------------------|-------------------------|
A|-------------------------|-------------------------|
E|-------------------------|-------------------------|
A|-0-0-0----0-0-0----------|-0-0-0----0-0-0----------|
   * * *    * * *            * * *    * * *

-----------------------------------------------------------------------------------------
                                   CHORUS 3 (02:30-03:06)
-----------------------------------------------------------------------------------------

I. Guitars 1 and 2 (w/ dist)

E|------------------|---------------------|
B|------------------|---------------------|
G|------------------|---------------------|
D|------------------|---------------------| x3
A|-0----0--0---s4---|---4--4---4s6--6--6--|
E|-0----0--0---s4---|---4--4---4s6--6--6--|
A|-0----0--0---s4---|---4--4---4s6--6--6--|

E|------------------|---------------------------------|
B|------------------|---------------------------------|
G|------------------|---------------------------------|
D|------------------|---------------------------------|
A|-0----0--0---s4---|---------------------------------|
E|-0----0--0---s4---|---------------------------------|
A|-0----0--0---s4---|--6--6--6--6--6------4--4--4--4--|
                       *  *  *  *  *      *  *  *  *

II. Guitar 1 (w/ dist)

E|------------------|---------------------|
B|------------------|---------------------|
G|------------------|---------------------|
D|------------------|---------------------| x4
A|-0----0--0---s4---|---4--4---4s6--6--6--|
E|-0----0--0---s4---|---4--4---4s6--6--6--|
A|-0----0--0---s4---|---4--4---4s6--6--6--|

   Guitar 2 (w/ dist)

E|------------------|-----------------------|-----------------|
B|------------------|-----------------------|-----------------|
G|------------------|-----------------------|-----------------|
D|-7----7--7--s11---|--11-11-11-11-11-11-11-|-7----7--7--s6---|
A|-x----x--x--sx----|--x--x--x--x--x--x--x--|-x----x--x--sx---|
E|-5----5--5--s9----|--9--9--9--9--9--9--9--|-5----5--5--s4---|
A|------------------|-----------------------|-----------------|

E|--------------------|------------------|--------------------|
B|--------------------|------------------|--------------------|
G|--------------------|------------------|--------------------|
D|--6--6--6--6--6--6--|-7----7--7---s6---|--6--6--6--6--6--6--|
A|--x--x--x--x--x--x--|-x----x--x---sx---|--x--x--x--x--x--x--|
E|--4--4--4--4--4--4--|-5----5--5---s4---|--4--4--4--4--4--4--|
A|--------------------|------------------|--------------------|

E|------------------|--------------------|
B|------------------|--------------------|
G|------------------|--------------------|
D|-7----7--7---s6---|--6--6--6--6--6--6--|
A|-x----x--x---sx---|--x--x--x--x--x--x--|
E|-5----5--5---s4---|--4--4--4--4--4--4--|
A|------------------|--------------------|

III. Guitars 1 and 2 (w/ dist)

E|---------------|--------------------|
B|---------------|--------------------|
G|---------------|--------------------|
D|---------------|--------------------|
A|---------------|--------------------|
E|---------------|-------0--0--0------|
A|-6~~~~4~~~~6~~~|~~4----0--0--0------|
                         *  *  *

IV. Guitar 1 (w/ dist)

E|------------------|---------------------|
B|------------------|---------------------|
G|------------------|---------------------|
D|------------------|---------------------| x4
A|-0----0--0---s4---|---4--4---4s6--6--6--|
E|-0----0--0---s4---|---4--4---4s6--6--6--|
A|-0----0--0---s4---|---4--4---4s6--6--6--|

   Guitar 2 (w/ dist)

E|-------------------------|-------------------------|-------------------------|
B|-------------------------|-------------------------|-------------------------|
G|-------------------------|-------------------------|-------------------------|
D|-14-14-14-14-14-14-15-15-|-15-15-15-15-15-15-15-15-|-14-14-14-14-14-14-15-15-|
A|-x--x--x--x--x--x--x--x--|-x--x--x--x--x--x--x--x--|-x--x--x--x--x--x--x--x--|
E|-12-12-12-12-12-12-13-13-|-13-13-13-13-13-13-13-13-|-12-12-12-12-12-12-13-13-|
A|-------------------------|-------------------------|-------------------------|

E|-------------------------|-------------------------|-------------------------|
B|-------------------------|-------------------------|-------------------------|
G|-------------------------|-------------------------|-------------------------|
D|-15-15-15-15-15-15-15-15-|-14-14-14-14-14-14-15-15-|-15-15-15-15-15-15s17s15-|
A|-x--x--x--x--x--x--x--x--|-x--x--x--x--x--x--x--x--|-x--x--x--x--x--x-sx-sx--|
E|-13-13-13-13-13-13-13-13-|-12-12-12-12-12-12-13-13-|-13-13-13-13-13-13s15s13-|
A|-------------------------|-------------------------|-------------------------|

E|-----------------------|-----------|
B|-----------------------|-----------|
G|-----------------------|-----------|
D|-14-14-14-14-14-14-9---|---s11-----|
A|-x--x--x--x--x--x--x---|---sx------|
E|-12-12-12-12-12-12-7---|---s9------|
A|-----------------------|-----------|

-----------------------------------------------------------------------------------------
                                     OUTRO (03:06-03:46)
-----------------------------------------------------------------------------------------

I. Guitar 1 (w/ dist)

E|---------------------|
B|---------------------|
G|---------------------|
D|---------------------| x4
A|---------------------|
E|---------------------|
A|-0--4--1---0--4--1---|

   Guitar 2 (w/ dist)

E|---------------------|
B|---------------------|
G|---------------------|
D|---------------------| x4
A|---------------------|
E|-xxxxxxxxxxxxxxxxxxx-|
A|-xxxxxxxxxxxxxxxxxxx-|
    pick scratch

II. Guitars 1 and 2 (w/ dist)

E|---------------------|---------------------|
B|---------------------|---------------------|
G|---------------------|---------------------|\
D|---------------------|---------------------| \ 
A|---------------------|---------------------|  \
E|---------------------|---------------------|   \
A|-0--4--1---0--4--5~~~|-0--4--1---0--4--5~~~|    \
                   +                     +         x6
E|---------------------|-------------------------| /
B|---------------------|-------------------------|/
G|---------------------|-------------------------|
D|---------------------|-------------------------|
A|---------------------|-------------------------|
E|---------------------|-0-0-0--0--0--0---0---0--|
A|-0--4--1---0--4--5~~~|-0-0-0--0--0--0---0---0--|
                   +     * * *  *  *  *   *   *

E|----------------|
B|----------------|
G|----------------|
D|----------------|
A|----------------|
E|-0--------------|
A|-0--------------|
   *


*****************************************************************************************
*                                       #13 OPTIONS                                     *
*****************************************************************************************

Riff 1a (w/ dist)

E|---------------------|--------------------|
B|---------------------|--------------------|
G|---------------------|--------------------|
D|---------------------|--------------------|
A|---------------------|--------------1-----|
E|----6p5------------5-|p3------------1-----|
A|-0-------0--6~~~0----|----0--4~~~0--1-----|
   *       *      *         *      *

Riff 1b (w/ dist)

E|---------------------|--------------------|
B|---------------------|--------------------|
G|---------------------|--------------------|
D|---------------------|--------------------|
A|---------------------|--------------------|
E|----6p5------------5-|p3------------5h6p5-|
A|-0-------0--6~~~0----|----0--4~~~0--------|
   *       *      *         *      *

Riff 1c (w/ dist)

E|---------------------|-----------------------|
B|---------------------|-----------------------|
G|---------------------|-----------------------|
D|---------------------|-----------------------|
A|---------------------|--------------1-----1--|
E|---------------------|--------------1-----1--|
A|-0--9p8--0--4~~~0--9-|p8--0--4~~~0--1--0--1--|
   *       *      *         *      *     *
E|---------------------|-----------------------|
B|---------------------|-----------------------|
G|---------------------|-----------------------|
D|---------------------|-----------------------|
A|---------------------|-----------------------|
E|---------------------|--------------5h6p5----|
A|-0--9p8--0--4~~~0--9-|p8--0--4~~~0-----------|
   *       *      *         *      *

Fill 1 (w/ dist)

E|----------------|-------------|
B|----------------|-------------|
G|----------------|-------------|
D|----------------|-------------|
A|-1----3----4----|--0----6b----|
E|-1----3----4----|--0----5b----|
A|-1----3----4----|--0----------|
                     *

Riff 2a (w/ dist)

E|----------------------|-----------------------|
B|----------------------|-----------------------|
G|----------------------|-----------------------|
D|----------------------|-----------------------|
A|----------------------|-----------------------|
E|-------6p5----------6-|p5-------------6p5-----|
A|-0--0-----h6--0--0----|--h6--0--0--0-----h6---|
   *  *         *  *           *  *  *

Riff 2b (w/ dist)

E|------------------------|-------------------------|
B|------------------------|-------------------------|
G|------------------------|-------------------------|
D|------------------------|-------------------------|
A|------------------------|-------------------------|
E|--------6p5-----------6-|p5---------------6p5-----|
A|-0-0-0-----h6--0-0-0----|--h6--0-0-0--0------h6---|
   * * *         * * *           * * *  *

Riff 2c (w/ dist)

E|----------------------|-------------------------|
B|----------------------|-------------------------|
G|----------------------|-------------------------|
D|----------------------|---------------18-19-18--|
A|----------------------|-------------------------|
E|-------6p5----------6-|p5-----------------------|
A|-0--0-----h6--0--0----|--h6--0--0--0------------|
   *  *         *  *           *  *  * 

Riff 3a (w/ dist)

E|------------------------|---------------------------------|
B|------------------------|---------------------------------|
G|------------------------|---------------------------------|
D|------------------------|---------------------------------|
A|------------------------|---------4-4-4-4-----------------|
E|------------------------|-3-3-3-3---------3-3-3-3---------|
A|-0--0--0--0--1--1--3--3-|-------------------------4-4-4-4-|
      *  *  *  *  *  *  * 

Riff 3b (w/ dist)

E|------------------------|---------------------------------|
B|------------------------|---------------------------------|
G|------------------------|---------------------------------|
D|------------------------|---------------------------------|
A|------------------------|---------4-4-4-4-----------------|
E|------------------------|-3-3-3-3---------3-3-3-3---------|
A|-0--0--0--0--1--1--3--3-|-------------------------4~~~~~~~|
      *  *  *  *  *  *  *                           +

Riff 4a (w/ dist)

E|-------|---------|-------|---------|-------|---------|-------|-------|
B|-------|---------|-------|---------|-------|---------|-------|-------|
G|-------|---------|-------|---------|-------|---------|-------|-------|
D|-------|---------|-------|---------|-------|---------|-------|-------|
A|-0-----|---------|-0-----|---------|-0-----|---------|-3-----|-1-----|
E|-0-----|---------|-0-----|---------|-0-----|---------|-3-----|-1-----|
A|-0-----|--1---s4-|-0-----|--1---s4-|-0-----|--1---s4-|-3-----|-1-----|

Riff 4b (w/ dist)

E|-------|---------|-------|---------|-------|---------|-------|--------------|
B|-------|---------|-------|---------|-------|---------|-------|--------------|
G|-------|---------|-------|---------|-------|---------|-------|--------------|
D|-------|---------|-------|---------|-------|---------|-------|--------------|
A|-0-----|---------|-0-----|---------|-0-----|---------|-0-----|-0--0----0--0-|
E|-0-----|---------|-0-----|---------|-0-----|---------|-0-----|-0--0----0--0-|
A|-0-----|--1---s4-|-0-----|--1---s4-|-0-----|--1---s4-|-0-----|-0--0----0--0-|
                                                                 *  *    *  *

Riff 5a (w/ dist)

E|------------------------|----------------------|
B|------------------------|----------------------|
G|------------------------|----------------------|
D|------------------------|----------------------|
A|------------------------|----------------------|
E|-------6--6--5--------6-|-6--5-----------5br---|
A|-0--0-----------0--0----|-------0--0--0--------|
   *  *           *  *            *  *  *

Riff 5b (w/ dist)

E|------------------------|------------------------|
B|------------------------|------------------------|
G|------------------------|------------------------|
D|------------------------|------------------------|
A|------------------------|----------------5s7s5---|
E|-------6--6--5--------6-|-6--5-------------------|
A|-0--0-----------0--0----|-------0--0--0----------|
   *  *           *  *            *  *  *

Fill 2 (w/ dist)

E|-----------|-------|-----------|------------|
B|-----------|-------|-----------|------------|
G|-----------|-------|-----------|------------|
D|-----------|-------|-----------|------------|
A|-----------|---1---|-----------|------------|
E|-0--0----0-|---1---|-0--0----0-|--s6--------|
A|-0--0----0-|---1---|-0--0----0-|-------9--8-|
   *  *    *           *  *    *        
E|-----------|------|-----------|--------|
B|-----------|------|-----------|--------|
G|-----------|------|-----------|--------|
D|-----------|------|-----------|--------|
A|-----------|---1--|-----------|--------|
E|-0--0----0-|---1--|-0--0----0-|-1s11s1-|
A|-0--0----0-|---1--|-0--0----0-|-1s11s1-|
   *  *    *           *  *    *      

Riff 6 (w/ dist)

E|----------------|---------------------------|
B|----------------|---------------------------|
G|----------------|---------------------------|
D|----------------|---------------------------|
A|----------------|---------------------------|
E|----------------|---------------------------|
A|-0----1----3----|-0--0--0--0--0--0--0-0-0-0-|
                    *  *  *  *  *  *  * * * *

SONG STRUCTURE
INTRO
Riff 1a x3
Riff 1b x1
Riff 1a x3
Riff 1b x1
Riff 1c x2
Fill 1

VERSE
Riff 2a x4
Riff 2b x4

PRE-CHORUS
Riff 3a x1
Riff 3b x1
Riff 3a x2

CHORUS
Riff 4a x1
Riff 4b x1

VERSE 2
Riff 2a x3
Riff 2c x1
Riff 2b x4

PRE-CHORUS 2 same as PRE-CHORUS

CHORUS 2 same as CHORUS

BRIDGE
Riff 5a x8
Fill 2
Riff 5b x4
Riff 6 x4

CHORUS 3
Riff 4a x1
Riff 4a x1 (without last bar) 

******************************************************************************************                                         #14 JADE                                      *
*****************************************************************************************

-----------------------------------------------------------------------------------------
                                   INTRO PART (0:00 - 1:55)
-----------------------------------------------------------------------------------------

Pattern 1 (w/ slight overdrive)

D|---------------------|------------------------------------------|
A|---------------------|------------------------------------------|
F|---------------------|------------------------------------------|
C|---------------------|------------------------------------------|
G|---------------------|------12----------------------------------|
D|------12--------13---|------------------------------------------|
G|-0---------0---------|-0----------------------------------------|

Pattern 2 (w/ slight overdrive)

D|---------------------|-------------|--------------------|--------------------|
A|---------------------|-------------|--------------------|--------------------|
F|---------------------|-------------|--------------------|--------------------|
C|---------------------|-------------|--------------------|--------------------|
G|---------------------|------12-----|------10--12--10----|-8---10--8----7br---|
D|------12--------13---|-------------|--------------------|--------------------|
G|-0---------0---------|-0-----------|--------------------|--------------------|

Pattern 3 (w/ slight overdrive)

D|---------------------|-------------|--------------------|--------------------|
A|---------------------|-------------|--------------------|--------------------|
F|---------------------|-------------|--------------------|--------------------|
C|---------------------|-------------|--------------------|--------------------|
G|---------------------|------12-----|------10--12--10----|-8-s-10--10---12br~~|
D|------12--------13---|-------------|--------------------|--------------------|
G|-0---------0---------|-0-----------|--------------------|--------------------|

Pattern 4 (w/ slight overdrive)

D|---------------------|-------------|---------------------|
A|---------------------|-------------|---------------------|
F|---------------------|-------------|---------------------|
C|---------------------|-------------|---------------------|
G|---------------------|-------------|---------------------|
D|------15--------17---|------20-----|------20br~~~~~~~~~~~|
G|-0---------0---------|-0-----------|---------------------|

Pattern 5 (w/ slight overdrive)

D|---------------------|-------------|-----------------|-----------------|
A|---------------------|-------------|-----------------|-----------------|
F|---------------------|-------------|-----------------|-----------------|
C|---------------------|-------------|-----------------|-----------------|
G|---------------------|-------------|-----------------|-12--------------|
D|------15--------17---|------13-----|------12br--13---|------13---12~~~~|
G|-0---------0---------|-0-----------|-----------------|-----------------|

Pattern 6 (w/ slight overdrive)

D|---------------------|------------------|
A|---------------------|------------------|
F|---------------------|------------------|
C|---------------------|------------------|
G|---------------------|------12br~~~~~~~~|
D|------15--------17---|------------------|
G|-0---------0---------|-0----------------|

Pattern 7 (w/ slight overdrive)

D|---------------------|-------------|--------------------|--------------------|
A|---------------------|-------------|--------------------|--------------------|
F|---------------------|-------------|--------------------|--------------------|
C|---------------------|-------------|--------------------|--------------------|
G|---------------------|-------------|------10--12--10----|-8---10--8----7br~~~|
D|------15--------17---|------13-----|--------------------|--------------------|
G|-0---------0---------|-0-----------|--------------------|--------------------|

Pattern 8 (w/ slight overdrive)

D|---------------------|-------------|--------------------|--------------------|
A|---------------------|-------------|--------------------|--------------------|
F|---------------------|-------------|--------------------|--------------------|
C|---------------------|-------------|--------------------|--------------------|
G|---------------------|------12-----|------10--12--10----|-8---10--8---12br---|
D|------12--------13---|-------------|--------------------|--------------------|
G|-0---------0---------|-0-----------|--------------------|--------------------|

Pattern 9 (w/ slight overdrive)

D|---------------------|-------------|--------------------|--------------------|
A|---------------------|-------------|--------------------|--------------------|
F|---------------------|-------------|--------------------|--------------------|
C|---------------------|-------------|--------------------|--------------------|
G|---------------------|-------------|--------------------|--------------------|
D|------15--------17---|------20-----|------15--17--15----|-13--15--13---17br~~|
G|-0---------0---------|-0-----------|--------------------|--------------------|

Pattern 10 (w/ slight overdrive)

D|---------------------|-------------|
A|---------------------|-------------|
F|---------------------|-------------|
C|---------------------|-------------|
G|---------------------|-------------|
D|------15--------17---|------13-----|
G|-0---------0---------|-0-----------|

Pattern 11 (w/ slight overdrive)

D|---------------------|-----------------|-----------------|-----------------|
A|---------------------|-----------------|-----------------|-----------------|
F|---------------------|------14br--10---|------9----10----|s12---10---9~~~~~|
C|---------------------|-----------------|-----------------|-----------------|
G|---------------------|-----------------|-----------------|-----------------|
D|------15--------13---|-----------------|-----------------|-----------------|
G|-0---------0---------|-0---------------|-----------------|-----------------|

Pattern 12 (w/ slight overdrive)

D|---------------------|-----------------|-----------------|
A|---------------------|-----------------|-----------------|
F|---------------------|------14br--10---|------9----10~~~~|
C|---------------------|-----------------|-----------------|
G|---------------------|-----------------|-----------------|
D|------15--------13---|-----------------|-----------------|
G|-0---------0---------|-0---------------|-----------------|

Pattern 13 (w/ slight overdrive)

D|---------------------|---------------------|
A|---------------------|---------------------|
F|---------------------|------14br--10~~~~~~~|
C|---------------------|---------------------|
G|---------------------|---------------------|
D|------15--------13---|---------------------|
G|-0---------0---------|-0-------------------|

Pattern 14 (w/ slight overdrive)

D|---------------------|------------------------|
A|---------------------|------------------------|
F|------10--------9----|-----s12----10----------|
C|---------------------|------------------------|
G|---------------------|------------------------|
D|---------------------|------------------------|
G|-0---------0---------|-0----------------------|

Pattern 15 (w/ slight overdrive)

D|---------------------|-----------------|-----------------|-----------------|
A|---------------------|-----------------|-----------------|-----------------|
F|------10--------9----|------14br--10---|------9----10----|s12---10---9~~~~~|
C|---------------------|-----------------|-----------------|-----------------|
G|---------------------|-----------------|-----------------|-----------------|
D|---------------------|-----------------|-----------------|-----------------|
G|-0---------0---------|-0---------------|-----------------|-----------------|

Pattern 16 (w/ slight overdrive)

D|---------------------|-----------------|-----------------|-----------------|
A|---------------------|-----------------|-----------------|-----------------|
F|---------------------|------14br--10---|-----s12---10----|-9-s10---10~~~~~~|
C|---------------------|-----------------|-----------------|-----------------|
G|---------------------|-----------------|-----------------|-----------------|
D|------12--------13---|-----------------|-----------------|-----------------|
G|-0---------0---------|-0---------------|-----------------|-----------------|

Pattern 17 (w/ slight overdrive)

D|---------------------|-----------------|-----------------|-----------------|
A|---------------------|-----------------|-----------------|-----------------|
F|---------------------|------14br--10---|------9----10----|s12---10---9~~~~~|
C|---------------------|-----------------|-----------------|-----------------|
G|---------------------|-----------------|-----------------|-----------------|
D|------15--------13---|-----------------|-----------------|-----------------|
G|-0---------0---------|-0---------------|-----------------|-----------------|

Pattern 18 (w/ slight overdrive)

D|---------------------|---------------------|
A|---------------------|---------------------|
F|------10--------9----|------14br--10~~~~~~~|
C|---------------------|---------------------|
G|---------------------|---------------------|
D|---------------------|---------------------|
G|-0---------0---------|-0-------------------|


               INTRO STRUCTURE 
-----------------------------------------------
|     Left Guitar     |     Right Guitar      |
-----------------------------------------------                  
|     Pattern 1       |                       |
|     Pattern 1       |     Pattern 1         |
|     Pattern 1       |     Pattern 1         |
|     Pattern 1       |     Pattern 1         |
|     Pattern 1       |     Pattern 1         |
|     Pattern 2       |     Pattern 1         |
|     Pattern 3       |     Pattern 1         |
|     Pattern 2       |     Pattern 1         |
|     Pattern 4       |     Pattern 10        |
|     Pattern 5       |     Pattern 10        |
|     Pattern 6       |     Pattern 11        |
|     Pattern 7       |     Pattern 12        |
|     Pattern 8       |     Pattern 11        |
|     Pattern 2       |     Pattern 13        |
|     Pattern 9       |     Pattern 14        |
|     Pattern 2       |     Pattern 15        |
|     Pattern 8       |     Pattern 16        |
|     Pattern 4       |     Pattern 17        |
|     Pattern 9       |     Pattern 18        |
-----------------------------------------------

-----------------------------------------------------------------------------------------
                                      SONG (1:55 - 7:40)
-----------------------------------------------------------------------------------------

Riff 1 (w /dist)

D|------------------|
A|------------------|
F|------------------|
C|------------------|
G|-------------12---|
D|-12----13---------|
G|------------------|

Riff 2 (w /dist)

D|------------------|
A|------------------|
F|------------------|
C|------------------|
G|-10----12----15---|
D|------------------|
G|------------------|

Riff 3 (w /dist)

D|------------------|
A|------------------|
F|------------------|
C|------------------|
G|-10----12----8----|
D|------------------|
G|------------------|

Riff 4 (w /dist)

D|-------------------------------|
A|-------------------------------|
F|-------------------------------|
C|-------------------------------|
G|-------------------------------|
D|-12--13--12h13--12--12--12--12-|
G|-------------------------------|

Riff 5 (w /dist)

D|-------------------------------|-------------------------|
A|-------------------------------|-------------------------|
F|-------------------------------|-------------------------|
C|-------------------------------|-------------------------|
G|-------------------------------|-12--12--12--13----------|
D|-12--13--12h13--12--12--12--12-|-------------------------|
G|-------------------------------|------------------1s12s1-|

Riff 6 (w /dist)

D|-----------------------|------------------------|
A|-----------------------|------------------------|
F|-----------------------|------------------------|
C|-----------------------|------------------------|
G|-----------------------|------------------------|
D|-----------------------|------------------------|
G|-0--1--0s1--0--0--0--0-|-0--0--0--0--0--0--0--0-|
                 *  *  *   *  *  *     *  *  *  *

Riff 7 (w /dist)

D|------------------|---------------------------------|
A|------------------|---------------------------------|
F|------------------|---------------------------------|
C|------------------|---------------------------------|
G|------------------|---------------------------------|
D|-15br--13br--12br-|-12--12--12--12--12--12--12--12--|
G|------------------|---------------------------------|

Riff 8 (w /dist)

D|------------------|-------------------------|
A|------------------|-------------------------|
F|------------------|-------------------------|
C|------------------|-------------------------|
G|------------------|-12--12--12--13----------|
D|-15br--13br--12br-|-------------------------|
G|------------------|------------------1s12s1-|

Riff 9 (w /dist)

D|------------------|-----------------|
A|------------------|-----------------|
F|------------------|-----------------|
C|------------------|-----------------|
G|-0-----4-----3----|-3---8-----10----|
D|-0-----4-----3----|-3---8-----10----|
G|-0-----4-----3----|-3---8-----10----|

Riff 10 (w /dist)

D|-------------------------------------|---------------------------------------|
A|-------------------------------------|---------------------------------------|
F|-------------------------------------|---------------------------------------|
C|-------------------------------------|---------------------------------------|
G|-------------------------------------|---------------------------------------|
D|-------------------------------------|---------------------------------------|
G|-0---0---0--0--0-------0---0--0--0---|-----0---0--0--0---0--0--0---0--0--0---|
   *   *   *  *  *       *   *  *  *         *   *  *  *   *  *  *   *  *  *

Riff 11 (w /dist)

D|----------------------------------|------------------------------------|
A|----------------------------------|------------------------------------|
F|----------------------------------|------------------------------------|
C|----------------------------------|------------------------------------|
G|----------------------------------|------------------------------------|
D|----------------------------------|------------------------------------|
G|-0---0---0--0--1b---0---0--0--1br-|------0--0--0---0--0--0---0--0--0---|
   *   *   *  *       *   *  *             *  *  *   *  *  *   *  *  *

Song Structure

INTRO
Riff 1 + Riff 2 x1
Riff 1 + Riff 3 x1 
Riff 1 + Riff 2 x1
Riff 1 + Riff 3 x1
Riff 4 x3
Riff 5 x1

VERSE
Riff 6 x8

CHORUS
Riff 4 x4
Riff 7 x3
Riff 8 x1

VERSE 2
Riff 6 x8
PAUSE
Riff 6 x8

BRIDGE
Riff 9 x1
Riff 10 x7
Riff 11 x9

BREAKDOWN
Riff 6 slow x16


*****************************************************************************************
*                                #15 WITHOUT MORAL RESTRAINT                            *
*****************************************************************************************

-----------------------------------------------------------------------------------------
                                     INTRO (00:00-00:26)
-----------------------------------------------------------------------------------------

I.  Guitar 1 (w/ dist)

E|------------------------------|------------------------|
B|------------------------------|------------------------|
G|------------------------------|------------------------|
D|------------------------------|------------------------|
A|------------------------------|------------------------|
E|------------------------------|------------------------|
A|-0---11--10--0---10~~~0---11--|-10--0---10~~~0---10~~~~|

E|------------------------------|--------------------|
B|------------------------------|--------------------|
G|------------------------------|--------------------|
D|------------------------------|--------------------|
A|------------------------------|--------------------|
E|------------------------------|--------------------|
A|-0---11--10--0---10~~~0---11--|-10--0---10~~~0-----|

II.  Guitars 1 and 2 (w/ dist)

E|------------------------------|------------------------|
B|------------------------------|------------------------|
G|------------------------------|------------------------| x3
D|------------------------------|------------------------|
A|------------------------------|------------------------|
E|------------------------------|------------------------|
A|-0---11--10--0---10~~~0---11--|-10--0---10~~~0---10~~~~|

E|------------------------------|--------------------|
B|------------------------------|--------------------|
G|------------------------------|--------------------|
D|------------------------------|--------------------|
A|------------------------------|--------------------|
E|------------------------------|--------------------|
A|-0---11--10--0---10~~~0---11--|-10--0---10~~~0-----|

E|---------------------------|----------------|
B|---------------------------|----------------|
G|---------------------------|----------------| x3
D|---------------------------|----------------|
A|---------------------------|----------------|
E|---------------------------|----------------|
A|-0---11--10--0---0-----11--|-10--0---0------|

E|------------------------------|-----------------------|
B|------------------------------|-----------------------|
G|------------------------------|-----------------------|
D|------------------------------|-----------------------|
A|------------------------------|-----------------------|
E|------------------------------|-----------------------|
A|-0---11--10--0---0----0---11--|-10--0---0-------------|

-----------------------------------------------------------------------------------------
                                    VERSE (00:26-00:53)
-----------------------------------------------------------------------------------------

Guitars 1 and 2 (w/ dist)

E|---------------------|------------------|------------------|------------------|-----------------------|
B|---------------------|------------------|------------------|------------------|-----------------------|
G|---------------------|------------------|------------------|------------------|-----------------------| x4
D|---------------------|------------------|------------------|------------------|-----------------------|
A|---------------------|------------------|------------------|------------------|-----------------------|
E|-0----0-----0----0---|---0----0-----0---|---0-----0----0---|---0----0-----0---|-0---------------------|
A|-0----0-----0----0---|---0----0-----0---|---0-----0----0---|---0----0-----0---|-0----11--10--0---10~~~|
   *    *     *    *       *    *     *       *     *    *       *    *     *     *         
-----------------------------------------------------------------------------------------
                                    CHORUS (00:53-01:12)
-----------------------------------------------------------------------------------------

Guitars 1 and 2 (w/ dist)

E|------------------------------|------------------------|
B|------------------------------|------------------------|
G|------------------------------|------------------------| x3
D|------------------------------|------------------------|
A|------------------------------|------------------------|
E|------------------------------|------------------------|
A|-0---11--10--0---10~~~0---11--|-10--0---10~~~0---10~~~~|

E|------------------------------|--------------------|
B|------------------------------|--------------------|
G|------------------------------|--------------------|
D|------------------------------|--------------------|
A|------------------------------|--------------------|
E|------------------------------|--------------------|
A|-0---11--10--0---10~~~0---11--|-10--0---10~~~0-----|

E|------------------|---------------|------------------|-----------------|---------------------|
B|------------------|---------------|------------------|-----------------|---------------------|
G|------------------|---------------|------------------|-----------------|---------------------|
D|------------------|---------------|------------------|-----------------|---------------------|
A|------------------|---------------|------------------|-----------------|---------------------|
E|-0----0-----0-----|----0----0-----|-0-----0----0-----|-0-----0----0----|---------------------|
A|-0----0-----0-----|----0----0-----|-0-----0----0-----|-0-----0----0----|---11--10--0---10----|
   *    *     *          *    *       *     *    *       *     *    *
-----------------------------------------------------------------------------------------
                                    VERSE 2 (01:12-01:39)
-----------------------------------------------------------------------------------------
                                       same as VERSE
-----------------------------------------------------------------------------------------
                                    CHORUS 2 (01:39-02:00)
-----------------------------------------------------------------------------------------

Guitars 1 and 2 (w/ dist)
                                                  ----------------|
E|------------------------------|------------------------|        |
B|------------------------------|------------------------|        |
G|------------------------------|------------------------| x3     |
D|------------------------------|------------------------|        |
A|------------------------------|------------------------|        |
E|------------------------------|------------------------|        |
A|-0---11--10--0---10~~~0---11--|-10--0---10~~~0---10~~~~|        |
                                                                  |
E|------------------------------|--------------------|            |
B|------------------------------|--------------------|            |
G|------------------------------|--------------------|            |
D|------------------------------|--------------------|            |
A|------------------------------|--------------------|            |
E|------------------------------|--------------------|            |
A|-0---11--10--0---10~~~0---11--|-10--0---10~~~0-----|            |
                                                  ----------------|

-----------------------------------------------------------------------------------------
                                     BRIDGE (02:00-2:50)
-----------------------------------------------------------------------------------------

I. Guitars 1 and 2 (w/ dist) - wide slide

   Guitar 3 (w/ dist)

E|------------------|------------------|------------------|---------------|
B|------------------|------------------|------------------|---------------|
G|------------------|------------------|------------------|-------20------|
D|-18----19----18---|-19----18----19---|-18----19----18---|-19------------|
A|------------------|------------------|------------------|---------------|
E|------------------|------------------|------------------|---------------|
A|------------------|------------------|------------------|---------------|

II.  Guitars 1 and 2 (w/ dist)

E|---------------------------------------|---------------------------------------|
B|---------------------------------------|---------------------------------------|
G|---------------------------------------|---------------------------------------|
D|---------------------------------------|---------------------------------------|
A|---------------------------------------|---------------------------------------|
E|---------------------------------------|---------------------------------------|\
A|-7--7--4---4---4---4--4--4---7--7--4---|-4---4---4--4--4---7--7--4---7--7--4---| \
   *  *  *   *   *   *  *  *   *  *  *     *   *   *  *  *   *  *  *   *  *  *     x3
E|---------------------------------------|-------------------------------------|   /
B|---------------------------------------|-------------------------------------|  /
G|---------------------------------------|-------------------------------------| /
D|---------------------------------------|-------------------------------------|/
A|---------------------------------------|-------------------------------------|
E|---------------------------------------|-------------------5h8p5h8--4h7p4h7--|
A|-7--7--4---4---4---4--4--4---7--7--4---|-4---4---4--4--4---------------------|
   *  *  *   *   *   *  *  *   *  *  *     *   *   *  *  *

E|---------------------------------------|-----------------------------------|
B|---------------------------------------|-----------------------------------|
G|---------------------------------------|-----------------------------------|
D|---------------------------------------|-----------------------------------|
A|---------------------------------------|-----------------------------------|
E|---------------------------------------|-----------------------------------|
A|-7--7--4---4---4---4--4--4---7--7--4---|-4---4---4--4--4---6---5---6---5---|
   *  *  *   *   *   *  *  *   *  *  *     *   *   *  *  *                      
E|---------------------------------|-----------------------------------------| 
B|---------------------------------|-----------------------------------------|
G|---------------------------------|-----------------------------------------|
D|---------------------------------|-----------------------------------------|
A|---------------------------------|-----------------------------------------|
E|---------------------------------|-----------------1-s9-s1-----------------|
A|-6---5---0---4---3---0---6---5---|-0---4---3---0---1-s9-s1-----------------|


E|---------------------------------|---------------------------------|
B|---------------------------------|---------------------------------|
G|---------------------------------|---------------------------------| x3
D|---------------------------------|---------------------------------|
A|---------------------------------|---------------------------------|
E|---------------------------------|---------------------------------|
A|-6---5---0---4---3---0---6---5---|-0---4---3---0---6---5---6---5---|

E|---------------------------------|---------------------------|
B|---------------------------------|---------------------------|
G|---------------------------------|---------------------------|
D|---------------------------------|---------------------------|
A|---------------------------------|---------------------------|
E|---------------------------------|-----------------0----0----|
A|-6---5---0---4---3---0---6---5---|-0---4---3---0---0----0----|
                                                     *    *

E|---------------------------------|---------------------------------|
B|---------------------------------|---------------------------------|
G|---------------------------------|---------------------------------| x4
D|---------------------------------|---------------------------------|
A|-6---5---0---4---3---0---6---5---|-0---4---3---0---6---5---6---5---|
E|-6---5---0---4---3---0---6---5---|-0---4---3---0---6---5---6---5---|
A|-6---5---0---4---3---0---6---5---|-0---4---3---0---6---5---6---5---|

-----------------------------------------------------------------------------------------
                                    CHORUS 3 (02:50-03:21)
-----------------------------------------------------------------------------------------

Guitars 1 and 2 (w/ dist)

E|------------------------------|------------------------|
B|------------------------------|------------------------|
G|------------------------------|------------------------| x3
D|------------------------------|------------------------|
A|------------------------------|------------------------|
E|------------------------------|------------------------|
A|-0---11--10--0---10~~~0---11--|-10--0---10~~~0---10~~~~|

E|------------------------------|--------------------|
B|------------------------------|--------------------|
G|------------------------------|--------------------|
D|------------------------------|--------------------|
A|------------------------------|--------------------|
E|------------------------------|--------------------|
A|-0---11--10--0---10~~~0---11--|-10--0---10~~~0-----|

E|------------------------------|------------------------|
B|------------------------------|------------------------|
G|------------------------------|------------------------| x3
D|------------------------------|------------------------|
A|------------------------------|------------------------|
E|------------------------------|------------------------|
A|-0---11--10--0---10~~~0---11--|-10--0---10~~~0---10~~~~|

E|---------------------------|---------------------------------|
B|---------------------------|---------------------------------|
G|---------------------------|---------------------------------|
D|---------------------------|---------------------------------|
A|----------------------10---|-10--11--11--11--11--11--11--11--|
E|----------------------10---|-10--11--11--11--11--11--11--11--|
A|-0---11--10--0---10---10---|-10--11--11--11--11--11--11--11--|

E|------------------------------|------------------------|
B|------------------------------|------------------------|
G|------------------------------|------------------------| x3
D|------------------------------|------------------------|
A|------------------------------|------------------------|
E|------------------------------|------------------------|
A|-0---11--10--0---10~~~0---11--|-10--0---10~~~0---10~~~~|

E|------------------------------|--------------------|
B|------------------------------|--------------------|
G|------------------------------|--------------------|
D|------------------------------|--------------------|
A|------------------------------|--------------------|
E|------------------------------|--------------------|
A|-0---11--10--0---10~~~0---11--|-10--0---10~~~0-----|

-----------------------------------------------------------------------------------------
                                     OUTRO (03:21-04:01)
-----------------------------------------------------------------------------------------

Guitars 1 and 2 (w/ dist)

E|------------------------------|------------------------|
B|------------------------------|------------------------|
G|------------------------------|------------------------|
D|------------------------------|------------------------|
A|------------------------------|------------------------|
E|------------------------------|--------------0----0----|
A|-0---11--10--0---0----0---11--|-10--0---0----0----0----|
                                               *    *
E|------------------------------|--------------------|
B|------------------------------|--------------------|
G|------------------------------|--------------------|
D|------------------------------|--------------------|
A|------------------------------|--------------------|
E|------------------------------|--------------0-----|
A|-0---11--10--0---0----0---11--|-10--0---0----0-----|
                                               *
E|------------------------------|-----------------------------|
B|------------------------------|-----------------------------|
G|------------------------------|-----------------------------|
D|------------------------------|-----------------------------|
A|------------------------------|-----------------------------|
E|------------------------------|--------------0----0----0----|
A|-0---11--10--0---0----0---11--|-10--0---0----0----0----0----|
                                               *    *    *
E|------------------------------|--------------------|
B|------------------------------|--------------------|
G|------------------------------|--------------------|
D|------------------------------|--------------------|
A|------------------------------|--------------------|
E|------------------------------|--------------0-----|
A|-0---11--10--0---0----0---11--|-10--0---0----0-----|
                                               *


*****************************************************************************************
*                     And that's it. Hope you like it. 29.09.2014                       *
*****************************************************************************************

            
            
Suggest correction
Creating personal tab
Creating personal tab
You can edit any tab online and save it as your Personal.

You can edit, replace or remove any tab part or add personal notes – all changes will be seen only by you.

Personal tabs can be accessed anytime from any device, even offline.
Learn more »
Give kudos to tab author, rate the tab!
1 2 3 4 5
comments
print report bad tab
guest
You may want to rate the tab now too:
select rating
Wanna post a correction for this tab? Suggest correction