Oops, an error
Loading. Please wait.

Pass Out Of Existence tab

version 1
version 1

Whole song

Interactive

206 views 1 this week
no commentswrite comment
1 2 3 4 5
x 3
add to favorites
×
Save as Personal and add changes to this tab that will be seen only by you. Learn more ›
×
You can save this tab as Personal to edit and correct it or add notes. All changes will be seen only by you. Learn more »
launch autoscroll
font size
0
reset
how to read this tab
guitar tuner
edit
Autoscroll
slow
fast
+/-
esc
set tempo
stop
-----------------------------------------------------------------------------------------
|                             CHIMAIRA - PASS OUT OF EXISTENCE                          |
|                           Album: Pass out of Existence (2001)                         |
-----------------------------------------------------------------------------------------
           If you have questions or corrections feel free to send me a message:
                        http://profile.ultimate-guitar.com/godspeedy/
                           https://www.facebook.com/Godspeedy14
                           
        Also, check out my Youtube channel: http://www.youtube.com/user/Godspeedy14

                                  Tuning: 7 string AEADGBE

**************************************GUITAR NOTATIONS***********************************
*                                                                                       *
*                               | *   palm mute            |                            *
*                               | s   slide                |                            *
*                               | h   hammer-on            |                            *
*                               | p   pull-off             |                            *
*                               | ~   vibrato              |                            *
*                               | +   pinch harmonics      |                            *
*                                                                                       *
*****************************************************************************************

-----------------------------------------------------------------------------------------
|                                    INTRO (00:00-00:33)                                |
-----------------------------------------------------------------------------------------

Guitars 1 and 2 (w/ dist)

E|--------|
B|--------|
G|--------|
D|--------|
A|--------|
E|--------|
A|-1s6s1--|
   slide here
                                      -------------|
E|--------------------|---------------------|      |
B|--------------------|---------------------|      |
G|--------------------|---------------------|      |
D|--------------------|---------------------| x3   |
A|--------------------|---------------------|      |
E|--------------------|---------------------|      |
A|-0---2--1--0-s11--0-|-2--1--0-s11--0--1---|      |
                                                   | x2
E|------------------|-----------------------|      |
B|------------------|-----------------------|      |
G|------------------|-----------------------|      |
D|------------------|-----------------------|      |
A|------------------|-----------------------|      |
E|------------------|-----------0--1--0--1--|      |
A|-0---6--5--2~~~~0-|-5--4--1~~~0--1--0--1--|      |
                                *  *  *  * --------|

and then 8 bars empty

-----------------------------------------------------------------------------------------
|                                   VERSE (00:33-00:54)                                 |
-----------------------------------------------------------------------------------------

Guitars 1 and 2 (w/ dist)

E|----------------------|-------------------------|
B|----------------------|-------------------------|
G|----------------------|-------------------------|
D|----------------------|-------------------------| x3
A|----------------------|-------------------------|
E|-----------------0--0-|-0--0--0--0--0--0--------|
A|-0--h1-p0-h1--0--0--0-|-0--0--0--0--0--0--4--4--|
                   *  *   *  *  *  *  *  *
E|----------------------|-------------------------|
B|----------------------|-------------------------|
G|----------------------|-------------------------|
D|----------------------|-------------------------|
A|----------------------|-------------------------|
E|-----------------0--0-|-0-----------------------|
A|-0--h1-p0-h1--0--0--0-|-0--3--3--3--3--3--4--4--|
                   *  *   *
E|----------------------|-------------------------|
B|----------------------|-------------------------|
G|----------------------|-------------------------|
D|----------------------|-------------------------| x3
A|----------------------|-------------------------|
E|-----------------0--0-|-0--0--0--0--0--0--------|
A|-0--h1-p0-h1--0--0--0-|-0--0--0--0--0--0--4--4--|
                   *  *   *  *  *  *  *  *
E|----------------------|-------------------------|
B|----------------------|-------------------------|
G|----------------------|-------------------------|
D|----------------------|-------------------------|
A|----------------------|-------------------------|
E|----------------------|-------------------------|
A|-0--h1-p0-h1--0--1--1-|-1--1--3--3--3--3--4--4--|
               
-----------------------------------------------------------------------------------------
|                                   CHORUS (00:54-01:15)                                |
-----------------------------------------------------------------------------------------

Guitars 1 and 2 (w/ dist)

E|--------------------|---------------------|
B|--------------------|---------------------|
G|--------------------|---------------------|
D|--------------------|---------------------|
A|--------------------|---------------------|
E|--------------------|---------------------|
A|-0---2--1--0-s11--0-|-2--1--0-s11--0--1---|

E|--------------------|---------------------|
B|--------------------|---------------------|
G|--------------------|---------------------|
D|--------------------|---------------------|
A|--------------------|-----------------1---|
E|--------------------|--------------0--1---|
A|-0---2--1--0-s11--0-|-2--1--0-s11--0--1---|
                                     *
E|--------------------|---------------------|
B|--------------------|---------------------|
G|--------------------|---------------------|
D|--------------------|---------------------|
A|--------------------|---------------------|
E|--------------------|---------------------|
A|-0---2--1--0-s11--0-|-2--1--0-s11--0--1---|

E|------------------|-----------------------|
B|------------------|-----------------------|
G|------------------|-----------------------|
D|------------------|-----------------------|
A|------------------|-----------------------|
E|------------------|-----------0--1--0--1--|
A|-0---6--5--2~~~~0-|-5--4--1~~~0--1--0--1--|
                                *  *  *  * 
E|--------------------|---------------------|
B|--------------------|---------------------|
G|--------------------|---------------------|
D|--------------------|---------------------| x3
A|--------------------|---------------------|
E|--------------------|---------------------|
A|-0---2--1--0-s11--0-|-2--1--0-s11--0--1---|
 
E|------------------|-----------------------|
B|------------------|-----------------------|
G|------------------|-----------------------|
D|------------------|-----------------------|
A|------------------|-----------------------|
E|------------------|-----------0--1--0--1--|
A|-0---6--5--2~~~~0-|-5--4--1~~~0--1--0--1--|
                                *  *  *  * 

-----------------------------------------------------------------------------------------
|                                   INTERLUDE (01:15-01:31)                             |
-----------------------------------------------------------------------------------------

Guitars 1 and 2 (w/ dist)

E|------------------------|---------------------------|
B|------------------------|---------------------------|
G|------------------------|---------------------------|
D|------------------------|---------------------------| x2
A|------------------------|---------------------------|
E|------------------------|---------------------------|
A|-0---0--0-0-0--0--1-----|-0--0-0-0--0--1------0-h1--|
       *  * * *  *          *  * * *  *
E|-------------------------|--------------------------|
B|-------------------------|--------------------------|
G|-------------------------|--------------------------|
D|-------------------------|--------------------------|
A|-------------------------|--------------------------|
E|-------------------------|-----------------1--1--1--|
A|-0---6-6-5-5-0-0-2~~~2-2-|-2-2-1~~~1-1-1-1-1--1--1--|
       * * * * * *     * *   * *     * * * * *  *  *
E|------------------------|---------------------------|
B|------------------------|---------------------------|
G|------------------------|---------------------------|
D|------------------------|---------------------------|
A|------------------------|---------------------------|
E|------------------------|---------------------------|
A|-0---0--0-0-0--0--1-----|-0--0-0-0--0--1------0-h1--|
       *  * * *  *          *  * * *  *
E|------------------------|---------------------------|
B|------------------------|---------------------------|
G|------------------------|---------------------------|
D|------------------------|---------------------------|
A|------------------------|---------------------------|
E|------------------------|---------------------------|
A|-0---0--0-0-0--0--1-----|-0--0-0-0--0--1------3~~~~~|
       *  * * *  *          *  * * *  *         +
E|-------------------------|--------------------------|
B|-------------------------|--------------------------|
G|-------------------------|--------------------------|
D|-------------------------|--------------------------|
A|-------------------------|--------------------------|
E|-------------------------|-----------------1--1--1--|
A|-0---6-6-5-5-0-0-2~~~2-2-|-2-2-1~~~1-1-1-1-1--1--1--|
       * * * * * *     * *   * *     * * * * *  *  *

-----------------------------------------------------------------------------------------
|                                    VERSE 2 (01:31-01:51)                              |
-----------------------------------------------------------------------------------------
                                       same as VERSE                                     
-----------------------------------------------------------------------------------------
|                                   CHORUS 2 (01:51-02:12)                              |
-----------------------------------------------------------------------------------------
                                       same as CHORUS
-----------------------------------------------------------------------------------------
|                                    BRIDGE (02:12-03:00)                               |
-----------------------------------------------------------------------------------------

There are many synths in this part of this song, so you can barely hear the guitar notes
I tabbed out what I hear, but propably there are a lot more than that.
Here is how it goes:

8 bars empty, then:

Guitar 1 (w/ clean and delay)

E|-----------|-----------------------------|-----------|---------------------|
B|-----------|-----------------------------|-----------|-----------------13--|
G|-----9-----|------9--10-9----------------|-----9-----|---------9---10------|
D|-----------|-----------------------------|-----------|-14--12--------------|
A|-----------|-----------------------------|-----------|---------------------|
E|-----------|-----------------------------|-----------|---------------------|
A|-----------|-----------------------------|-----------|---------------------|

E|-----------|-----------------------------|-----------|---------------------|
B|-----------|-----------------------------|-----------|-----------------13--|
G|-----------|-------9s10-12-12------------|-----9-----|---------9---10------|
D|-----------|-------------------15-14-12--|-----------|-14--12--------------|
A|-----------|-----------------------------|-----------|---------------------|
E|-----------|-----------------------------|-----------|---------------------|
A|-----------|-----------------------------|-----------|---------------------|

E|-----------|-----------------------------|-----------|---------------------|
B|-----------|-----------------------------|-----------|-----------------13--|
G|-----9-----|------9--10-9----------------|------9----|---------9---10--10--|
D|-----------|-----------------------------|-----------|-14--12--------------|
A|-----------|-----------------------------|-----------|---------------------|
E|-----------|-----------------------------|-----------|---------------------|
A|-----------|-----------------------------|-----------|---------------------|

Guitar 2 (w/ clean and delay)

E|-----------|-----------------------------|-----------|------------------------|
B|-----------|-----------------------------|-----------|------------------------|
G|-----------|-----------------------------|-----------|------------------------|
D|-----------|-----------------------------|-----------|------------------------|
A|-----------|-----------------------------|-----------|---------10-------------|
E|-----------|-----------------------------|-----------|-13--12------12---------|
A|-----------|-----------------------------|-----------|-----------------10s12--|

E|-----------|-----------------------------|-----------|------------------------|
B|-----------|-----------------------------|-----------|------------------------|
G|-----------|-------9s10-12-12------------|-----------|------------------------|
D|-----------|-------------------15-14-12--|-----------|------------------------|
A|-----------|-----------------------------|-----------|---------10-------------|
E|-----------|-----------------------------|-----------|-13--12------12---------|
A|-12--------|-----------------------------|-----------|-----------------10s12--|

E|-----------|-----------------------------|-----------|------------------------|
B|-----------|-----------------------------|-----------|------------------------|
G|-----------|-----------------------------|-----------|------------------------|
D|-----------|-----------------------------|-----------|------------------------|
A|-----------|-----------------------------|-----------|---------10-------------|
E|-----------|-----------------------------|-----------|-13--12------12---------|
A|-12--------|-----------------------------|-----------|-----------------10s12--|

-----------------------------------------------------------------------------------------
|                                     OUTRO (03:00-03:24)                               |
-----------------------------------------------------------------------------------------

Guitars 1 and 2 (w/ dist)

E|--------|
B|--------|
G|--------|
D|--------|
A|--------|
E|--------|
A|-1s6s1--|
   slide 

E|--------------------|---------------------|
B|--------------------|---------------------|
G|--------------------|---------------------|
D|--------------------|---------------------| x3
A|--------------------|---------------------|
E|--------------------|---------------------|
A|-0---2--1--0-s11--0-|-2--1--0-s11--0--1---|
  
E|-----------------------|-------------------------|
B|-----------------------|-------------------------|
G|-----------------------|-------------------------|
D|-----------------------|-------------------------|
A|-----11-11-11-11-11-11-|-11-11-11-11-11-11-11-11-|
E|-----11-11-11-11-11-11-|-11-11-11-11-11-11-11-11-|
A|-0---11-11-11-11-11-11-|-11-11-11-11-11-11-11-11-|
                                          *  *  * 
E|---------------------|---------------------|
B|---------------------|---------------------|
G|---------------------|---------------------|
D|---------------------|---------------------| x2
A|-0------------11-----|----------11-----1---|
E|-0---2--1--0--11--0--|-2--1--0--11--0--1---|
A|-0---2--1--0--11--0--|-2--1--0--11--0--1---|
       *  *  *      *    *  *  *      *
E|----------------------|----------------------|
B|----------------------|----------------------|
G|----------------------|----------------------|
D|----------------------|----------------------|
A|-0-------------11-----|-----------11---------|
E|-0-------------11--0--|-----------11--0------|
A|-0---2--1-1-0--11--0--|-2--1-1-0--11--0--3~~~|
       *  * * *      *    *  * * *      *  +
E|---------------------|---------------------|---------------|
B|---------------------|---------------------|---------------|
G|---------------------|---------------------|---------------|
D|---------------------|---------------------|---------------|
A|-0------------11-----|----------11-----11--|-0-------------|
E|-0---2--1--0--11--0--|-2--1--0--11--0--11--|-0-------------|
A|-0---2--1--0--11--0--|-2--1--0--11--0--11--|-0-------------|
       *  *  *      *    *  *  *      *

            
            
Suggest correction
Creating personal tab
Creating personal tab
You can edit any tab online and save it as your Personal.

You can edit, replace or remove any tab part or add personal notes – all changes will be seen only by you.

Personal tabs can be accessed anytime from any device, even offline.
Learn more »
Give kudos to tab author, rate the tab!
1 2 3 4 5
comments
print report bad tab
guest
You may want to rate the tab now too:
select rating
Wanna post a correction for this tab? Suggest correction