Oops, an error
Loading. Please wait.

Pictures In The Gold Room Tab

version 1
version 1

Whole song

Interactive

2,532 views 1 this week
1 commentread comment
1 2 3 4 5
x 7
add to favorites
launch autoscroll
font size
0
reset
how to read this tab
guitar tuner
Autoscroll
slow
fast
+/-
esc
set tempo
stop
Artist: Chimaira
Song: Pictures In The Gold Room
Album: The Impossibility Of Reason (2003)
Tabbed by: Yoni Drijfhout - tabs@illninoworld.com
Tuned: C G C F A D


|-----------------|-----------------|
|-----------------|-----------------|
|-----------------|-----------------|
|-1-------1-------|-1-------1-------|
|-1-0---0-1-0---0-|-1-0---0-1-00-00-|
|---0---0---0---0-|---0---0---00-00-| 4x
PM  *   *   *   *     *   *   ** **

|------------------------|
|------------------------|
|------------------------|
|-1----------------------|
|-1-00-00-0--------------|
|---00-00-0--------------|
PM  ** **

|-----------------|-----------------|
|-----------------|-----------------|
|-----------------|-7---------------|
|-1---------------|-7---------------|
|-1-00-00-0-------|-5---------------|
|---00-00-0-------|-0---------------|
PM  ** **

|-----------------|-----------------|
|-----------------|-----------------|
|-----------------|-----------------|
|-1---------------|-----------------|
|-1-00-00-0-------|-----------------|
|---00-00-0-------|-----------------|
PM  ** **

|-----------------|-----------------|
|-----------------|-----------------|
|-----------------|-----------------|
|-1---------------|---------1-------|
|-1-00-00-0---0---|-0----0--1-00-00-|
|---00-00-0---0---|-0----0----00-00-|
PM  ** **                     ** **

|-----------------|-----------------|
|-----------------|-----------------|
|-----------------|-----------------|
|-1-------1-------|-1---------------|
|-1-0-000-1-0-000-|-1-0-000-1-3-1-1-|
|---0-000---0-000-|---0-000-1-3-1-1-|  4x
PM                        * * * * *

|------------------------|
|------------------------|
|------------------------|
|------------------------|
|-0----------------------|
|-0----------------------|

|-----------------|-----------------|
|-----------------|-----------------|
|-----------------|-7---------------|
|-1---------------|-7---------------|
|-1-00-00-0-------|-5---------------|
|---00-00-0-------|-0---------------|
PM  ** **

|-----------------|-----------------|
|-----------------|-----------------|
|-----------------|-----------------|
|-1---------------|-----------------|
|-1-00-00-0-------|-----------------|
|---00-00-0-------|-----------------|
PM  ** **

|-----------------|-----------------|
|-----------------|-----------------|
|-----------------|-----------------|
|-1---------------|---------1-------|
|-1-00-00-0---0---|-0----0--1-00-00-|
|---00-00-0---0---|-0----0----00-00-|
PM  ** **                     ** **

|-----------------|-----------------|
|-----------------|-----------------|
|-----------------|-----------------|
|-1-------1-------|-1---------------|
|-1-0-000-1-0-000-|-1-0-000-1-3-1-1-|
|---0-000---0-000-|---0-000-1-3-1-1-|  8x
PM                        * * * * *

|-----------------|-----------------|
|-----------------|-----------------|
|-----------------|-----------------|
|-----------------|-----------------|
|-----------------|-----------------|
|-1~-1~-1~-1~-1-1-|-4~-4~-4-///////-|

|-----------------|-----------------|-----------------|-----------------|
|-----------------|-----------------|-----------------|-----------------|
|-----------------|-----------------|-----------------|-----------------|
|-1-------1-------|-1-------1-------|-1-------1-------|-----------------|
|-1-0---0-1-0---0-|-1-0---0-1-00-00-|-1-0---0-1-0---0-|-3/5-5/6---------|
|---0---0---0---0-|---0---0---00-00-|---0---0---0---0-|---------3/5-5/6-|  4x
PM  *   *   *   *     *   *   ** **     *   *   *   *

|-----------------|
|-----------------|
|-----------------|
|-----------------|
|-3/5-5/6---------|
|---------3/5-5/6-|

|-----------------|-----------------|
|-----------------|-----------------|
|-----------------|-----------------|
|-----------------|-----------------|
|-3/5-5/6---------|*5-------0---0---|
|---------3/5-5/6-|---0-0-0-0---0---| 4x

|-----------------|-----------------|
|-----------------|-----------------|
|-----------------|-----------------|
|-----------------|-----------------|
|-----------------|-----------------|
|-1~-1~-1~-1~-1-1-|-4~-4~-/////////-|

|-----------------|-----------------|-2---2-----------|-----------------|
|-----------------|-----------------|--3---3----------|-----------------|
|-----------------|-----------------|---4---4---------|-----------------|
|-0---------------|-11^-------------|-2---------------|-1-------0---0---|
|-0---------------|-11^-------------|-2---------------|-1-------0---0---|
|-0---------------|-11^-------------|-2---------------|-1-------0---0---|  4x
PM                                                              *   *

Guitar 1
|-----------------|-----------------|-----------------|-----------------|
|-----------------|-----------------|-----------------|-----------------|
|-----------------|-----------------|-----------------|-----------------|
|-----------------|-----------------|-----------------|-----------------|
|-6/5-------------|-6/5-------------|-6/5-------------|-6/5-------------|
|-----6-5-3-5-4-3-|-----6-5-3-5-4-3-|-----6-5-3-5-4-3-|-----6-5-3-5-4-3-|  2x

Guitar 2
|-----------------|-----------------|-----------------|-----------------|
|-----------------|-----------------|-----------------|-----------------|
|-----------------|-----------------|-----------------|-----------------|
|-----------------|-----------------|-----------------|-----------------|
|-6/5-------------|-6/5-------------|-6/5-------------|-6/5-------------|
|-----6-5-3-5-4-3-|-----6-5-3-5-4-3-|-----6-5-3-5-4-3-|-----6-5-3-5-4-3-|

|-----------------|-----------------|-----------------|-----------------|
|-----------------|-----------------|-----------------|-----------------|
|-----------------|-----------------|-----------------|-----------------|
|-4/3-------------|-4/3-------------|-4/3-------------|-4/3-------------|
|-----0-2/1-2-1-0-|-----0-2/1-2-1-0-|-----0-2/1-2-1-0-|-----0-2/1-*2----|
|-----------------|-----------------|-----------------|-----------------|

|-----------------|
|-----------------|
|-----------------|
|-----------------|
|-6-5-6-5-3-5-4-3-|
|-6-5-6-5-3-5-4-3-| 8x
PM* * * * * * * *

|-----------------|
|-----------------|
|-----------------|
|-----------------|
|-6-5-6-5-3-5-4-3-|
|-6-5-6-5-3-5-4-3-|

|-----------------|-----------------|
|-----------------|-----------------|
|-----------------|-----------------|
|-1-------1-------|-1---------------|
|-1-0-000-1-0-000-|-1-0-000-1-3-1-1-|
|---0-000---0-000-|---0-000-1-3-1-1-|  8x
PM                        * * * * *

|-----------------|-----------------|
|-----------------|-----------------|
|-----------------|-----------------|
|-----------------|-----------------|
|-----------------|-----------------|
|-1~-1~-1~-1~-1-1-|-4~-4~-4-///////-|

|-----------------|-----------------|-----------------|-----------------|
|-----------------|-----------------|-----------------|-----------------|
|-----------------|-----------------|-----------------|-----------------|
|-1-------1-------|-1-------1-------|-1-------1-------|-----------------|
|-1-0---0-1-0---0-|-1-0---0-1-00-00-|-1-0---0-1-0---0-|-3/5-5/6---------|
|---0---0---0---0-|---0---0---00-00-|---0---0---0---0-|---------3/5-5/6-|  4x
PM  *   *   *   *     *   *   ** **     *   *   *   *

|-----------------|-----------------|
|-----------------|-----------------|
|-----------------|-----------------|
|-1---------------|-----------------|
|-1-00-00-0-------|-----------------|
|---00-00-0-------|-----------------|
PM  ** **

|-----------------|-----------------|
|-----------------|-----------------|
|-----------------|-7---------------|
|-1---------------|-7---------------|
|-1-00-00-0-------|-5---------------|
|---00-00-0-------|-0---------------|
PM  ** **

|-----------------|-----------------|
|-----------------|-----------------|
|-----------------|-----------------|
|-1---------------|-----------------|
|-1-00-00-0-------|-----------------|
|---00-00-0-------|-----------------|
PM  ** **

|-----------------|-----------------|
|-----------------|-----------------|
|-----------------|-----------------|
|-1---------------|---------1-------|
|-1-00-00-0---0---|-0----0--1-00-00-|
|---00-00-0---0---|-0----0----00-00-|
PM  ** **                     ** **

|-----------------|
|-----------------|
|-----------------|
|-----------------|
|-0---------------|
|-0---------------|
Suggest correction
comments
print report bad tab
1 comment total.
0 reply
Madne$$ 10 Jul 12, 2008 05:37 AM

perfect tab dude :)

the begining bit is spot on :).

i was also playing it, came up with an idea

|-----------------|-----------------|
|-----------------|-----------------|
|-----------------|-----------------|
|-1-------1-------|-1---------------|
|-1-0-000-1-0-000-|-1-0-000-1-3-1-1-|
|---0-000---0-000-|---0-000-1-3-1-1-| 8x
PM * * * * *
instead of that ^^^


|-----------------|-----------------|
|-----------------|-----------------|
|-----------------|-----------------|
|-1-------1-------|-1-------1-------|
|-1-0-000-1-0-000-|-1-0-000-1-3-1---|
|---0-000---0-000-|---0-000-- 3-1---| 8x
PM * * * * *

guest
You may want to rate the tab now too:
select rating
Wanna post a correction for this tab? Suggest correction