Oops, an error
Loading. Please wait.

Pray For All tab

version 1
version 1

Whole song

Interactive

4,805 views 1 this week
5 commentsread comments
1 2 3 4 5
x 7
add to favorites
×
Save as Personal and add changes to this tab that will be seen only by you. Learn more ›
×
You can save this tab as Personal to edit and correct it or add notes. All changes will be seen only by you. Learn more »
launch autoscroll
font size
0
reset
how to read this tab
guitar tuner
edit
Autoscroll
slow
fast
+/-
esc
set tempo
stop
Author
Difficulty
-------------------------------------------------------------------------------
                          PRAY FOR ALL - Chimaira
-------------------------------------------------------------------------------
Tabbed by: windsofcreation

| /  slide up
| \  slide down
| h  hammer-on
| p  pull-off
| ~  vibrato
| b  bend
| +  harmonic
| x  Mute note


 this is easily one of, if not the best track on this album, and yet nobodys
 tabbed it out yet... what the hell is up with that?!?!?  ah well, its done now,
 so revel in it... long live metal...


Tuning: C G C F A D

d|-----------------------------------------------|
A|-----------------------------------------------|
F|-----------------------------------------------|
C|-0-00-1/3-00-3/4-000000-000-3/4-00-4/6-000000--|
G|-0-00-1/3-00-3/4-000000-000-3/4-00-4/6-000000--|
C|-0-00-1/3-00-3/4-000000-000-3/4-00-4/6-000000--| x6
     xx     xx     xxxxxx xxx     xx     xxxxxx


d|-----------------------------------------------|
A|-----------------------------------------------|
F|-----------------------------------------------|
C|-----------------------------------------------|
G|-------------1-3-5---------3-5-6-5-6-5-6-8-9b--|
C|-0-1-3-1-3-1-------0000000---------------------| x1
                     xxxxxxx


d|-----------------------------------------------------|
A|-----------------------------------------------------|
F|-----------------------------------------------------|
C|-----------------------------------------------------|
G|-------------1-3-5---------3-5-6-5-6-5-6-8-9---------|
C|-0-1-3-1-3-1-------0000000-------------------0000000-| x4
                     xxxxxxx                   xxxxxxx


d|-----------------------------------------------------|
A|-----------------------------------------------------|
F|-----------------------------------------------------|
C|-----------------------------------------------------|
G|-9-8-6-8-6-5-6-5-3---------3-5-6-5-6-5-6-8-9---------|
C|-------------------0000000-------------------0000000-| x4
                     xxxxxxx                   xxxxxxx


d|----------------------------------------------------------------------|
A|----------------------------------------------------------------------|
F|----------------------------------------------------------------------|
D|----------------------------8-11-10-----------------------------------|
G|-6---5------3h5-3h5----6----6-9--8-----6---5---3h5-3h5----6-----5---5-|
C|---0---0-00---------00---00---------00---0---0---------00---0-6---3---| x2
     x   x xx         xx   xx          xx   x   x         xx   x


d|---|
A|---|
F|---|
C|-0-|
G|-0-|
C|-0-| end with this the second time.


d|-------------------------|
A|-------------------------|
F|-------------------------|
C|-0-00-1/3-00-3/4-00-4/6--|
G|-0-00-1/3-00-3/4-00-4/6--|
C|-0-00-1/3-00-3/4-00-4/6--| x1
     xx     xx     xx


d|-----------------------------------------------------|
A|-----------------------------------------------------|
F|-----------------------------------------------------|
C|-----------------------------------------------------|
G|-------------1-3-5---------3-5-6-5-6-5-6-8-9---------|
C|-0-1-3-1-3-1-------0000000-------------------0000000-| x2
                     xxxxxxx                   xxxxxxx


d|-----------------------------------------------------|
A|-----------------------------------------------------|
F|-----------------------------------------------------|
C|-----------------------------------------------------|
G|-9-8-6-8-6-5-6-5-3---------3-5-6-5-6-5-6-8-9---------|
C|-------------------0000000-------------------0000000-| x2
                     xxxxxxx                   xxxxxxx


d|----------------------------------------------------------------------|
A|----------------------------------------------------------------------|
F|----------------------------------------------------------------------|
D|----------------------------8-11-10-----------------------------------|
G|-6---5------3h5-3h5----6----6-9--8-----6---5---3h5-3h5----6-----5---5-|
C|---0---0-00---------00---00---------00---0---0---------00---0-6---3---| x2
     x   x xx         xx   xx          xx   x   x         xx   x
  
                                    
d|---|
A|---|
F|---|
c|-0-|
G|-0-|
C|-0-| end with this the second time.


d|----------------------------------------------------|
A|----------------------------------------------------|
F|----------------------------------------------------|
C|------------------8-11-10---------------------------|
G|-6---5------------6-9--8-----6---5------------5---3-|
C|---0---0-00000000---------00---0---0-000000-6---5---| x2
     x   x xxxxxxxx         xx   x   x xxxxxx
      

d|---|
A|---|
F|---|
c|-0-|
G|-0-|
C|-0-| end with this the second time.


d|-----------------------------------------|
A|-----------------------------------------|
F|-----------------------------------------|    this is the rhythm under the
C|-0-1-3-4---0-1-3-4---0-1-3-4---0-1-3-4---|    solo, which i cant be arsed
G|-0-1-3-4---0-1-3-4-----------------------|    to work out.
C|-0-1-3-4---0-1-3-4-----------------------| x1


d|---------------------|
A|---------------------|      after this comes another riff i havent gotten
F|---------------------|      round to working out yet - i'll add it when i
C|-0-1-1/4--0-0-1/4----|      do, or ifanyone beats me to it then let me
G|-0-1-1/4--0-0-1/4----|      know.
C|-0-1-1/4--0-0-1/4----| x10
            x

 (INSERT MYSTERIOUS RIFF... x2)

d|---------------------|
A|---------------------|
F|---------------------|
C|-0-1-1/4--0-0-1/4----|
G|-0-1-1/4--0-0-1/4----|
C|-0-1-1/4--0-0-1/4----| x2
            x

 (INSERT MYSTERIOUS RIFF AGAIN... x2)

d|---------------------|
A|---------------------|
F|---------------------|
C|-0-1-1/4--0-0-1/4----|
G|-0-1-1/4--0-0-1/4----|
C|-0-1-1/4--0-0-1/4----| x3
            x

 then end it short;

d|------------|
A|------------|
F|------------|
C|-0-1-1/4--0-|
G|-0-1-1/4--0-|
C|-0-1-1/4--0-| x1
            

d|------------------------------------------------------------------------|
A|------------------------------------------------------------------------|
F|------------------------------------------------------------------------|
D|----------------------------8-11-10-------------------------------------|
G|-6---5------3h5-3h5----6----6-9--8------6---5---3h5-3h5----6-----5---5--|
C|---0---0-00---------00---00----------00---0---0---------00---0-6---3----| 
     x   x xx         xx   xx          xx   x   x         xx   x           

 play to finish.

 another guitar comes in with yet another riff i havent bothered to work
 out at the end, but you can live without it.

 thats it.  have fun :)

===============================================================================

            
            
Suggest correction
Creating personal tab
Creating personal tab
You can edit any tab online and save it as your Personal.

You can edit, replace or remove any tab part or add personal notes – all changes will be seen only by you.

Personal tabs can be accessed anytime from any device, even offline.
Learn more »
comments
print report bad tab
5 comments total. Showing first comments.
0 reply
windsofcreation 31 Oct 17, 2006 08:53 AM

i made a slight mistake on this...

during the main chorus riff, theres three chords in the wrong order, it should be -

|---------|
|---------|
|---------|
|-10-11-8-|
|-8--9--6-|
|---------|

rather than -

|---------|
|---------|
|---------|
|-8-11-10-|
|-6-9--8--|
|---------|

sorry about that!

0 reply
chimairian 10 Oct 30, 2007 11:34 AM

hey man first of all I loved your tab really helped me out a lot.

I think I've got most of your "mysterious riff" figured out:

|-----------------------------------------------------|
|-----------------------------------------------------|
|-----------------------------------------------------|
|-----------------------------------------------------|
|----2-2h1--------5p3-2-2h3----2-2h1--------5p3-2-2h3-|
|-2-2-2---0-22-2-2-----2----2-2-2---0-22-2-2-----2----|
x x x x xx x x x x x x x xx x x x


It's got a sort of tapping on the end wich I did'nt hear good enough to tab but this is the basic riff, hope you enjoy it, let me know if it's usefull to ya.

0 reply
Rhomtanglegrams 10 Aug 05, 2008 09:40 PM

Awesome song and great tab. It's pretty much right it seems, but this part:

|-3-5-6-5-6-5-6-8-9---------|
|-------------------0000000-|


should be this:

|-3-5-6-5-6-8-6-8-9---------|
|-------------------0000000-|


And I'm pretty sure I have the ending riff:

C|-----7-5-7-------10---8p7-5---7h8-7--7-5-7-----5-3-2----2h3p2--5-|
G|--------------------------------------------5--------------------|
C|-0-----------0---------------------------------------------------|


That's my guess.

guest
You may want to rate the tab now too:
select rating
Wanna post a correction for this tab? Suggest correction