Oops, an error
Loading. Please wait.

Salvation bass

version 1
version 1

Whole song

Interactive

817 views 1 this week
no commentswrite comment
1 2 3 4 5
3 more votes to show rating
add to favorites
×
Save as Personal and add changes to this tab that will be seen only by you. Learn more ›
×
You can save this tab as Personal to edit and correct it or add notes. All changes will be seen only by you. Learn more »
launch autoscroll
font size
0
reset
guitar tuner
edit
Autoscroll
slow
fast
+/-
esc
set tempo
stop
Author
Band: Chimaira
Song: Salvation
Tuning: CGCF


Intro

|-----------------------------------------------------------------|
|-----------------------------------------------------------------|
|-----------------------------------------------------------------|
|0~----------------------------0-0--------------------------------|
                               . .

|-----------------------------------------------------------------|
|-----------------------------------------------------------------|
|-----------------------------------------------------------------|
|0~----------------------------0-0--------------------------------|
                               . .

|-----------------------------------------------------------------|
|-----------------------------------------------------------------|
|-----------------------------------------------------------------|
|0------------------3------------------1-----------------0-0------|
                                                         . .
verse 1

|-------------------------------------------------------|
|-------------------------------------------------------|
|-------------------------------------------------------|
|000000000---000---000-0-0---0--000-0-0-1/3-3-3-3/4-4-4-|
 .........   ...   ... . .   .  ... . .     . .     . .

|----------------------------------------------------|
|----------------------------------------------------|
|----------------------------------------------------|
|000000000---000---000-0-0---0--000-0-0--3-----1-----|
 .........   ...   ... . .   .  ... . .

|-------------------------------------------------------|
|-------------------------------------------------------|
|-------------------------------------------------------|
|000000000---000---000-0-0---0--000-0-0-1/3-3-3-3/4-4-4-|
 .........   ...   ... . .   .  ... . .     . .     . .


|-------------------------------------------------------|
|-------------------------------------------------------|
|-------------------------------------------------------|
|000000000---000---000-0-0---0--000-0-0-1/3-3-3-3/4-4-4-|
 .........   ...   ... . .   .  ... . .     . .     . .


|-------------------------------------------------------|
|-------------------------------------------------------|
|-------------------------------------------------------|
|000000000---000---000-0-0---0--000-0-0-1/3-3-3-3/4-4-4-|
 .........   ...   ... . .   .  ... . .     . .     . .

|-------------------------------------------------------|
|-------------------------------------------------------|
|-------------------------------------------------------|
|000000000---000---000-0-0---0--000-0-0-1/3-3-3-3/4-4-4-|
 .........   ...   ... . .   .  ... . .     . .     . .

chorus

|------------------------------------------------------------------|
|------------------------------------------------------------------|
|------------------------------------------------------------------|
|5~--------55-5-3--3--5-3----------5~---------55-5-3--3--5-3-------|
           ..                                 ..

|-------------------------------------------------------------------------|
|-------------------------------------------------------------------------|
|-------------------------------------------------------------------------|
|5~--------55-5-3--3--5-3----------5~---------55-5-3--3--5-3--1-1-1-1-1-1-|
           ..                                 ..              . . . . . .

verse 2

|-------------------------------------------------------|
|-------------------------------------------------------|
|-------------------------------------------------------|
|000000000---000---000-0-0---0--000-0-0-1/3-3-3-3/4-4-4-|
 .........   ...   ... . .   .  ... . .     . .     . .

|----------------------------------------------------|
|----------------------------------------------------|
|----------------------------------------------------|
|000000000---000---000-0-0---0--000-0-0--3-----1-----|
 .........   ...   ... . .   .  ... . .

|-------------------------------------------------------|
|-------------------------------------------------------|
|-------------------------------------------------------|
|000000000---------000-0-0------------0/1/3-3-3-3/4-4-4-|
 .........         ... . .            .     . .     . .

|-------------------------------------------------------|
|-------------------------------------------------------|
|-------------------------------------------------------|
|000000000---000---000-0-0---0--000-0-0-1/3-3-3-3/4-4-4-|
 .........   ...   ... . .   .  ... . .     . .     . .


|-------------------------------------------------------|
|-------------------------------------------------------|
|-------------------------------------------------------|
|000000000---000---000-0-0---0--000-0-0-1/3-3-3-3/4-4-4-|
 .........   ...   ... . .   .  ... . .     . .     . .

|-------------------------------------------------------|
|-------------------------------------------------------|
|-------------------------------------------------------|
|000000000---000---000-0-0---0--000-0-0-1/3-3-3-3/4-4-4-|
 .........   ...   ... . .   .  ... . .     . .     . .

chorus


|------------------------------------------------------------------|
|------------------------------------------------------------------|
|------------------------------------------------------------------|
|5~--------55-5-3--3--5-3----------5~---------55-5-3--3--5-3-------|
           ..                                 ..

|------------------------------------------------------------------|
|------------------------------------------------------------------|
|------------------------------------------------------------------|
|5~--------55-5-3--3--5-3----------5~---------55-5-3--3--5-3-------|
           ..                                 ..

|----------------------------------------------------------------------------|
|----------------------------------------------------------------------------|
|----------------------------------------------------------------------------|
|1---------11-1/3--3--5-3----------1----------11-0-0--0--1-0----0-0--0--1-0--|
           ..                                 ..

|----------------------------------|
|----------------------------------|
|----------------------------------|
|000-0--0---0--0---000-0--0---0--0-|
 ... .      .      ... .      .

bridge x4

|------------------------------------|
|------------------------------------|
|-------------5656--------------5656-|
|000-0--0---0------000-0--0---0------|
 ... .      .      ... .      .

|------------------------------------|
|------------------------------------|
|-------------5656------8------------|
|000-0--0---0-------0-0---0-6-0-3/1--|
 ... .      .       . .   .   .
 

|------------------|
|------------------|
|------------------|
|000-0--0---0--0---|

[underneath the solo]

|------------------------------------|
|------------------------------------|
|-------------5656--------------5656-|
|000-0--0---0------000-0--0---0------|
 ... .      .      ... .      .

|-------------------------------------|
|-------------------------------------|
|-------------5656--------------------|
|000-0--0---0------111--111--444--444-|
 ... .      .      ...  ...  ...  ...

|------------------------------------|
|------------------------------------|
|-------------5656--------------5656-|
|000-0--0---0------000-0--0---0------|
 ... .      .      ... .      .

|-------------------------------------|
|-------------------------------------|
|-------------5656--------------------|
|000-0--0---0------111--111--444--444-|
 ... .      .      ...  ...  ...  ...


|------------------------------------|
|------------------------------------|
|------------------------------------|
|222-2--2---2-2----222-2--2---2-2----|
 ... .      .      ... .      .


|-------------------------------------|
|-------------2323--------------------|
|-------------------------------------|
|222-2--2---2------111--111--444--444-|
 ... .      .      ...  ...  ...  ...


|------------------------------------|
|------------------------------------|
|------------------------------------|
|222-2--2---2-2----222-2--2---2-2----|
 ... .      .      ... .      .


|-------------------------------------|
|-------------2323--------------------|
|-------------------------------------|
|222-2--2---2------111--111--444--444-|
 ... .      .      ...  ...  ...  ...

|------------------------------------|
|------------------------------------|
|-------------5656--------------5656-|
|000-0--0---0------000-0--0---0------|
 ... .      .      ... .      .

|-------------------------------------|
|-------------------------------------|
|-------------5656--------------------|
|000-0--0---0------111--111--444--444-|
 ... .      .      ...  ...  ...  ...

|------------------------------------|
|------------------------------------|
|-------------5656--------------5656-|
|000-0--0---0------000-0--0---0------|
 ... .      .      ... .      .

|-------------------------------------|
|-------------------------------------|
|-------------5656--------------------|
|000-0--0---0------111--111--444--444-|
 ... .      .      ...  ...  ...  ...

chorus

|------------------------------------------------------------------|
|------------------------------------------------------------------|
|------------------------------------------------------------------|
|5~--------55-5-3--3--5-3----------5~---------55-5-3--3--5-3-------|
           ..                                 ..

|------------------------------------------------------------------|
|------------------------------------------------------------------|
|------------------------------------------------------------------|
|5~--------55-5-3--3--5-3----------5~---------55-5-3--3--5-3-------|
           ..                                 ..

|----------------------------------------------------------------------------|
|----------------------------------------------------------------------------|
|----------------------------------------------------------------------------|
|1---------11-1/3--3--5-3----------1----------11-0-0--0--1-0----0-0--0--1-0--|
           ..                                 ..

Outro
|-----------------------------------------------------------------|
|-----------------------------------------------------------------|
|-----------------------------------------------------------------|
|0~----------------------------0-0--------------------------------|
                               . .
|-----------------------------------------------------------------|
|-----------------------------------------------------------------|
|-----------------------------------------------------------------|
|-----------------------------------------------------------------|
|-----------------------------------------------------------------|
|0------------------3------------------1-----------------0-0------|
                                                         . .
this repeats and fades out

            
            
Suggest correction
Creating personal tab
Creating personal tab
You can edit any tab online and save it as your Personal.

You can edit, replace or remove any tab part or add personal notes – all changes will be seen only by you.

Personal tabs can be accessed anytime from any device, even offline.
Learn more »
Give kudos to tab author, rate the tab!
1 2 3 4 5
comments
print report bad tab
guest
You may want to rate the tab now too:
select rating
Wanna post a correction for this tab? Suggest correction