Oops, an error
Loading. Please wait.

Some Kind Of Miracle Tab

53 views 1 this week
no commentswrite comment
1 2 3 4 5
3 more votes to show rating
add to favorites
launch autoscroll
font size
0
reset
how to read this tab
guitar tuner
Autoscroll
slow
fast
+/-
esc
set tempo
stop
Help us to improve Ultimate-Guitar.com Take our survey!
×
Author
Difficulty
intermediate
-------------------------------------------------------------------------------
                             SOME KIND OF MIRACLE - China Sky
-------------------------------------------------------------------------------

Band & Album - http://www.heavyharmonies.com/cgi-bin/glamcd.cgi?BandNum=407&CDName=China+Sky
Video - http://www.youtube.com/watch?v=z5v6jSHGMoA

Tabbed by: Beanboy

Tuning:Standard


Intro 

GTR1 - 
e|-------10-----------------------------10---------10-12---------------------|
B|-10/12----10-------10-12p10-----10/12----10--------------------------------|
G|--------------9/12----------9---------------9-12---------------------------|
D|---------------------------------------------------------------------------|
A|---------------------------------------------------------------------------|
E|---------------------------------------------------------------------------|

GTR2 - 
e|---------------------------------------------------------------------------|
B|---------------------------------------------------------------------------|
G|---------------------------------------------------------------------------|
D|-2-----------2-2------------2-----------2-2--------------------------------|
A|-2-----------2-2------------2-----------2-2--------------------------------|
E|-0-----------0-0------------0-----------0-0--------------------------------|

GTR1 - 
e|----10-------10-----------------------------------------------------------|
B|-12----10-12----13-12-10-12-----------------------------------------------|
G|------------------------------7h9-9-9-9-7-9-------------------------------|
D|------------------------------7h9-9-9-9-7-9-------------------------------|
A|--------------------------------------------------------------------------|
E|--------------------------------------------------------------------------|

GTR2 - 
e|---------------------------------------------------------------------------|
B|---------------------------------------------------------------------------|
G|-5----------7--------------------------------------------------------------|
D|-5----------7----------------2---------2-2---------------------------------|
A|-3----------5----------------2---------2-2---------------------------------|
E|-----------------------------0---------0-0---------------------------------|


Verse

e|---------------------------------------------------------------------------|
B|---------------------------------------------------------------------------|
G|-----------5--7------..-------------5--7------7h9-9-9-9-7-9----------------|
D|--2--------5--7--2---79----2--------5--7--2---7h9-9-9-9-7-9----------------|
A|--2--------3--5--2---57----2--------3--5--2--------------------------------|
E|--0----------0---------0----------0--------------------------------|


Pre Chorus

e|---------------------------------------------------------------------------|
B|-----------..--------------------------------------------------------------|
G|--5--7-7/9-99--------5--7--------------------------------------------------|
D|--5--7-7/9-99---x3---5--7--------------------------------------------------|
A|--3--5-5/7-77--------3--5--------------------------------------------------|
E|---------------------------------------------------------------------------|


Chorus

e|---------------------------------------------------------------|--------------|
B|---------------------------------------------------------------|--------------|
G|--9--5--7---------------5--7----------9--5--7------------5--7--|--------5--7--|
D|--9--5--7--5p4-------5--5--7--5-5-5---9--5--7--5p4-------5--7--|-2------5--7--|
A|--7--3--5------5h7---5--3--5----------7--3--5------5h7---3--5--|-2------3--5--|
E|---------------------3-----------------------------------------|-0--------|


Verse
Pre Chorus

Chorus

e|---------------------------------------------------------------|------------|
B|---------------------------------------------------------------|------------|
G|--9--5--7---------------5--7----------9--5--7------------5--7--|---5--7--9--|
D|--9--5--7--5p4-------5--5--7--5-5-5---9--5--7--5p4-------5--7--|---5--7--9--|
A|--7--3--5------5h7---5--3--5----------7--3--5------5h7---3--5--|---3--5--7--|
E|---------------------3-----------------------------------------|------------|

Under Solo

e|---------------|--------|-------------------|-------------------------------|
B|---------------|--------|-----------..------|-------------------------------|
G|-----5--7------|--5--7--|--5--7-7/9-99------|---5--7------------------------|
D|--2--5--7---x4-|--5--7--|--5--7-7/9-99--x2--|---5--7------------------------|
A|--2--3--5------|--3--5--|--3--5-5/7-77------|---3--5------------------------|
E|--0------------|--------|-------------------|-------------------------------|


Chorus till end


************************************

| /   slide up
| \   slide down
| h   hammer-on
| p   pull-off
| ~   vibrato
| +   harmonic
| x   Mute note
| b   Bend
| pb  Pre-bend
| br  Bend release
| pbr Pre-bend release
| brb Bend release bend
| pm  Palm mute

************************************
Suggest correction
Give kudos to tab author, rate the tab!
1 2 3 4 5
comments
print report bad tab
guest
You may want to rate the tab now too:
select rating
Wanna post a correction for this tab? Suggest correction