Oops, an error
Loading. Please wait.

Asian Prodigy Tab

386 views 1 this week
no commentswrite comment
1 2 3 4 5
please rate
add to favorites
launch autoscroll
font size
0
reset
how to read this tab
guitar tuner
Tab Pro tools
  • play this tab
  • loop segment
  • change instrument
  • show fretboard
  • metronome
Autoscroll
slow
fast
+/-
esc
set tempo
stop
Contributor
hey, this is my first tab, hope its good. im a big chinkees fan and a big fan of michael 
and asian man records (less than jake, the chinkees, alkaline trio, slapstick, link 80, 
lee band, slow gherkin, etc.)

if u have any questions email me at fuzzieman69@aol.com


intro and verse and chorus( the whole song is basically the same to riffs over and over 
the first is the ska riff, to be played with all up strokes)


------------------------------------------------------------------------------|
-----2-x-2-x-2-x-2-x-6-x-6-x-4-x-4-x-2-x-2-x-2-x-2-x-6-x-6-x-6-x-6-x----------|
-----3-x-3-x-3-x-3-x-7-x-7-x-5-x-5-x-3-x-3-x-3-x-3-x-7-x-7-x-7-x-7-x----------|
-----3-x-3-x-3-x-3-x-7-x-7-x-5-x-5-x-3-x-3-x-3-x-3-x-7-x-7-x-7-x-7-x-----3x---|
-----1-x-1-x-1-x-1-x-5-x-5-x-3-x-3-x-1-x-1-x-1-x-1-x-5-x-5-x-5-x-5-x----------|
-----1-x-1-x-1-c-1-x-5-x-5-x-3-x-3-x-1-x-1-x-1-x-1-x-5-x-5-x-5-x-5-x----------|

then you play the punk part ( refer to bottom of tab for strum partern)

---------------------------------------------------------------------------------|
---------------------------------------------------------------------------------|
---------------------------------------------------------------------------------|
--3-3-3-3-3-5-5-7-5--3-3-3-3-3-5-5-7-7--3-3-3-3-3-5-5-7-7--3-3-3-3-3-3-3-3-3-3-3-|
--3-3-3-3-3-5-5-5-5--3-3-3-3-3-5-3-5-5--3-3-3-3-3-5-5-7-7--3-3-3-3-3-3-3-3-3-3-3-|
--1-3-1-1-1-3-3-5-5--1-1-1-1-1-3-3-5-5--1-1-1-1-1-3-3-5-5--1-1-1-1-1-1-1-1-1-2-2-|


then strum partern is down, down, down, up, down..up, up,..up, up.

u just play that over and over throught the course of the song, with the exception of 
end where u play the punk part 3 or 4 times in a row, the u end on the f5 power chord.

i hope u enjoy the tab, its a great song.
-alex
comments
We did not receive enough feedback on this tab! Please rate:
print report bad tab
1 2 3 4 5
I want to post or [tab]
guest
You may want to rate the tab now too:
select rating
Please do not post tabs as comments. Select "correction" instead!