Oops, an error
Loading. Please wait.

A Letter From Janelle Tab

version 1
version 1

Whole song

28,873 views 3 this week
8 commentsread comments
1 2 3 4 5
excellent!
x 13
add to favorites
launch autoscroll
font size
0
reset
how to read this tab
guitar tuner
Autoscroll
slow
fast
+/-
esc
set tempo
stop
Help us to improve Ultimate-Guitar.com Take our survey!
×
Author
A Letter From Janelle
By:Chiodos
Album:Bone Palace Ballet

I hope it's correct coz some parts of the song is hard to listen to, and man, my copy 
crazy...
Anyway I tried it off... ^^

This part is not  guitar, it's keys... Just included... hehehe...
Intro:
 |--------------------------------|
 |--------------------------------|
 |-14~-12~-10-9-10-12-10-9-10-12--|
 |--------------------------------|
 |--------------------------------|
 |--------------------------------|

Guitar 1:
Shine!...
 |----------------------------------|    |----------------------------|
 |----------------------------------|    |----------------------------|
 |----------------------------------|    |----------------------------|
 |-11-0-9-0-9-0-11-0-9-0-9-11-x-x-x-| x2 |-11-0-9-0-9-0-11-0-9-0-9-0--| x2
 |----------------------------------|    |----------------------------|
 |----------------------------------|    |----------------------------|

Guitar 2:
 Shine!..    move with me, move with me...    with me...
 |-------|  |-----------------------------|  |----------|
 |--10~--|  |-----------------------------|  |----10~---|
 |--10~--|  |----7~----7~----7~----7~-----|  |----10~---|
 |--8~---|  |----7~----7~----7~----7~-----|  |----8~----|
 |-------|  |----5~----5~----5~----5~-----|  |----------|
 |-------|  |-----------------------------|  |----------|
            (I think this part is wrong...)
Chorus:(whole chorus is pLayed tremolo picking...)
 Dont you think I can tell....
 |-1010101010101010-1212121212121212-1313131313131313-1515151515151515---|
 |-----------------------------------------------------------------------|
 |-----------------------------------------------------------------------|
 |-----------------------------------------------------------------------|
 |-----------------------------------------------------------------------|
 |-----------------------------------------------------------------------|

continued...
 |-1717171717171717-1515151515151515-1717171717171717-1313131313131313--|
 |----------------------------------------------------------------------|
 |----------------------------------------------------------------------|
 |----------------------------------------------------------------------|
 |----------------------------------------------------------------------|
 |----------------------------------------------------------------------|
Chorus is played twice...

then:
 to remember who you really are...
 |---11----------12---13-----------|
 |-------10--13-----------11--13---|
 |---------------------------------|
 |---------------------------------|
 |---------------------------------|
 |---------------------------------|

verse:
  Its easy to get lost...
 |---------------------------------------------------------------------|
 |---------------------------------------------------------------------|
 |---5p0h3p0h2p0h3p0h2p0h2p0h3p0h2p0-5p0h3p0h2p0h3p0h2p0h2p0h3p0h2p0---|
 |---------------------------------------------------------------------|
 |---------------------------------------------------------------------|
 |---------------------------------------------------------------------|

 |---------------------------------------------------------------------|
 |---------------------------------------------------------------------|
 |---5p0h3p0h2p0h3p0h2p0h2p0h3p0h2p0-5p0h3p0h2p0h3p0h2p0h2p0h3p0h2p0---|
 |---------------------------------------------------------------------|
 |---------------------------------------------------------------------|
 |---------------------------------------------------------------------|

 |---------------------------------------------------------------------|
 |---------------------------------------------------------------------|
 |---5p0h3p0h2p0h3p0h2p0h2p0h3p0h2p0-5p0h3p0h2p0h3p0h2p0h2p0h3p0h2p0---|
 |---------------------------------------------------------------------|
 |---------------------------------------------------------------------|
 |---------------------------------------------------------------------|

 |---------------------------------------------------------------------|
 |---------------------------------------------------------------------|
 |---5p0h3p0h2p0h3p0h2p0h2p0h3p0h2p0-5p0h3p0h2p0h3p0h2p0h2p0h3p0h2p0---|
 |---------------------------------------------------------------------|
 |---------------------------------------------------------------------|
 |---------------------------------------------------------------------|

Pre-chorus:(i swear I hear the other guitar doin somethin here but i cant hear it, so 
just update it nxt tym..)
 Yet we hesitate...
 |-----------------------------------------------------------------------|
 |-----------------------------------------------------------------------|
 |------------------------------------1010101010101010-1212121212121212--|
 |-1212121212121212121212121212121212------------------------------------|
 |-----------------------------------------------------------------------|
 |-----------------------------------------------------------------------|

continued...
 |------------------------------------------------------|
 |------------------------------------------------------|
 |-14141414141414141414141414141414---------------------|
 |----------------------------------77777777-55555555---|
 |------------------------------------------------------|
 |------------------------------------------------------|
repeat pre-chorus...

Chorus:(tremolo picking)
 Dont you think I can tell....
 |-1010101010101010-1212121212121212-1313131313131313-1515151515151515---|
 |-----------------------------------------------------------------------|
 |-----------------------------------------------------------------------|
 |-----------------------------------------------------------------------|
 |-----------------------------------------------------------------------|
 |-----------------------------------------------------------------------|

continued...
 |-1717171717171717-1515151515151515-1717171717171717-1313131313131313--|
 |----------------------------------------------------------------------|
 |----------------------------------------------------------------------|
 |----------------------------------------------------------------------|
 |----------------------------------------------------------------------|
 |----------------------------------------------------------------------|
repeat chorus...

then:
 |---11----------12---13-----------|
 |-------10--13-----------11--13---|
 |---------------------------------|
 |---------------------------------|
 |---------------------------------|
 |---------------------------------|

-----------------Such a paradox... Isnt it?.. Isnt it?..--------------------|
-----------------Such a paradox... Isnt it?.. Isnt it?..--------------------|

i didnt include the paradox part...^^

That's aLL...
Hope it's correct...

and at Last..
I figured out how to update tabs...

^^hahah...
Suggest correction
comments
print report bad tab
8 comments total. Showing first comments. show 1 bad comment
0 reply
tucker69 757 wrote on October 4 2007, 04:38 am

Oh, sorry...
I forgot to write that thechorus part is rather tremolo picking,
which is pretty obvious...

anyway...^^

+4 reply
and1streeter 102 wrote on November 2 2007, 06:40 pm

guitar_gringo_ 's actually a ****ing tab spammer...stay away from him!! and good tab here man...

guest
You may want to rate the tab now too:
select rating
Wanna post a correction for this tab? Suggest correction