Oops, an error
Loading. Please wait.

All Nerids Beware bass

version 1
version 1

Whole song

Interactive

by Chiodos
3,496 views 3 this week
3 commentsread comments
1 2 3 4 5
x 5
add to favorites
×
Save as Personal and add changes to this tab that will be seen only by you. Learn more ›
×
You can save this tab as Personal to edit and correct it or add notes. All changes will be seen only by you. Learn more »
launch autoscroll
font size
0
reset
guitar tuner
edit
Autoscroll
slow
fast
+/-
esc
set tempo
stop
Author
Intro
G|-------------------------------------------------|X1
D|-------------------------------------------------|
A|-------------------------------------------------|
D|-5~---3~----1~---3-4----5~-----3~----1~-----3----|

Fill
G|-00--7-00-8-0-10-0-10-----------0--7-0-8-0-10-0-10---------|X1
D|-----------------------X-X-X-X---------------------X-X-X-X-|
A|-----------------------------------------------------------|
D|-----------------------------------------------------------|

Verse                              X3
G|-----------------------------------|-----------------------------|X1
D|-----------------------------------|-----------------------------|
A|--555-5-5--666-6-6--888-8-8-999-9-9|--555-5-5-666-6-6-888-8-8-9--|
D|-----------------------------------|-----------------------------|

Chorus
G|---------------------------------------------------|  x2
D|---------------------------------------------------|
A|---------------------------------------------------|
D|--5-55-5555--3-33-3333--5-55-5555-3-33-3333--------|

Post Chorus                               X2
G|----------------------|-------------------|------------|
D|----------------------|-------------------|------------|
A|----------------------|----------6------6-|-5--6--8--9-|
D|--0~--0-----0~--000~--|-00-11-33---11-1---|------------|

Verse
G|-----------------------------------------------------| x2
D|-----------------------------------------------------|
A|-----------------------------------------------------|
D|-00-00-0--11-11-1--33-33-3--44-44-4------------------|

Fill                                X1
G|---567-5-7-5-3-5---535-3-5-3-2-3----|
D|-5---------------3------------------|
A|------------------------------------|
D|------------------------------------|
                                      x3
G|---757-5-7-5-3-5---535-3-5-3-2-3------|---757-5-7-5-3-5------|
D|-5---------------3--------------------|-5---------------3~---|
A|--------------------------------------|----------------------|
D|--------------------------------------|----------------------|

G|--------------------------------------------| x2
D|-5555557--33333333--55555--888-5-33333333---|
A|--------------------------------------------|
D|--------------------------------------------|

Chorus                    x2           x2
G|-------------------------|------------|
D|-------------------------|------------|
A|-------------------------|------------|
D|--5-55-5555--3-33-3333---|-5-5--3-3---|

Breakdown                         x2                  x2         x2
G|----------|------|-----------------|------------------|----------|
D|----------|------|-----------------|------------------|----------|
A|--------6-|------|-------6666-6666-|------6-------6---|----------|
D|-0--000---|-0---0|-00-0000---------|-0-00----00-00----|-0-0-0-0--|


G|------------------------------------------------|X3
D|------------------------------------------------|
A|--------6----------------5---------6---5-5-5-5--|
D|--00-00----0000-0000-0000-----00-00-----0-0-0-0-|

            
            
Suggest correction
Creating personal tab
Creating personal tab
You can edit any tab online and save it as your Personal.

You can edit, replace or remove any tab part or add personal notes – all changes will be seen only by you.

Personal tabs can be accessed anytime from any device, even offline.
Learn more »
comments
print report bad tab
3 comments total.
0 reply
Patdi 308 Jan 24, 2007 04:40 PM

i made alot of mistakes here. 1st: in the verse at the A|--555--666--888--999 p8rt it shood be A|--555-55-666-66-888-88-999-99. 2nd: the 2nd part of the post chorus should be 11-1 instead of 33-3. 3rd: the verse; there should be one more 4 at the end. 4th: at the beginning of the fill it shood be G|---567-5-7-5-3-5
D|-5-------------- then do the fill the way i said. 5th: no slides in the entire song. last: the ending. now im completely unsure about it but i dont know what i usually play so just make somthing up yourself. Sorry for the mistakes

+1 reply
wildsnail 60 Aug 19, 2008 10:07 PM

the fill in the beginning should be

G|--7---8--10--10-| x2
D|-5------8---8---|
A|----6-----------|
D|----------------|

0 reply
wildsnail 60 Aug 19, 2008 10:09 PM

the fill in the beginning should be

G|--7---8--10--10-| x2
D|-5------8---8---|
A|----6-----------|
D|----------------|

guest
You may want to rate the tab now too:
select rating
Wanna post a correction for this tab? Suggest correction