Oops, an error
Loading. Please wait.

Baby You Wouldnt Last A Minute On The Creek bass

version 1
version 1

Whole song

Interactive

by Chiodos
16,629 views 1 this week
6 commentsread comments
1 2 3 4 5
x 16
add to favorites
×
Save as Personal and add changes to this tab that will be seen only by you. Learn more ›
×
You can save this tab as Personal to edit and correct it or add notes. All changes will be seen only by you. Learn more »
launch autoscroll
font size
0
reset
guitar tuner
edit
Autoscroll
slow
fast
+/-
esc
set tempo
stop
  Intro:
G|----------|-----|-----|-----|-----|
D|------7-8-|-5-7-|-3-5-|-3-2-|-2---|
A|-5-5------|-----|-----|-----|---3-|
E|----------|-----|-----|-----|-----|

G|---------|-----|----------|
D|-----7-8-|-5-7-|-3-5--3-2-|
A|-5-5-----|-----|----------|
E|---------|-----|----------|


  Pre verse:  Play 4x
G|--------------|----------|
D|--------------|----------|
A|-5555-5555-11-|----------|
E|--------------|-333--333-|


  Verse: Play 2x
G|---------------------|------------|---------------------|----------------|
D|---------------------|------------|---------------------|----------------|
A|-5555-5555-5555-5555-|-111--/8888-|-5555-5555-5555-5555-|-5555-3333-3333-|
E|---------------------|------------|---------------------|----------------|


  Chorus:
G|-----------|----------|-------------|
D|-----------|----------|-0-3--0-3----|
A|-5555-3333-|-11-11-11-|-----------5-|
E|-----------|----------|-------------|

G|----------------------------|
D|----------------------------|
A|-5555-3333---8-7-10-8-7-3-5-|
E|----------------------------|

G|-----------|----------|-------------|
D|-----------|----------|-0-3--0-3----|
A|-5555-3333-|-11-11-11-|-----------5-|
E|-----------|----------|-------------|

G|------------------------------------|
D|------------------------------------|
A|-5555-3333---11-11-11---1-3-3-------|
E|------------------------------------|


  Post-chorus:  Play 2x
G|-----------------------------------------------------|
D|-----------------------------------------------------|
A|-55-55-55-55--33-33-33-33--00-00-00-00--11-11-11-11--|
E|-----------------------------------------------------|

Chorus

Verse

  Bridge:
G|----------|-----|-----|-----|-----|
D|------7-8-|-5-7-|-3-5-|-3-2-|-2---|
A|-5-5------|-----|-----|-----|---3-|
E|----------|-----|-----|-----|-----|

G|---------|-----|----------|---|
D|-----7-8-|-5-7-|-3-5--3-2-|-7-|
A|-5-5-----|-----|----------|---|
E|---------|-----|----------|---|


  Breakdown: Play 4x
G|----------------------|------|----------------|
D|----------------------|------|----------------|
A|-5555-5555--3333/7777-|-5555-|-888-7-5--8-7-5-|
E|----------------------|------|----------------|

  Play 5x
G|---------|    G|-------------|
D|---------|    D|-------------|
A|-5-5-5-5-|    A|---0-1-0-4-5-|
E|---------|    E|-------------|


Post Chorus

Verse

  Ending:
E|-------|
A|-------|
D|--5-5--|
G|-------|


[Just so you know there are no 11's in this song, they are all 1st fret.  But there is a 
in the chorus. Otherwise the song was pretty straight-forward. Please rate. ]

            
            
Suggest correction
Creating personal tab
Creating personal tab
You can edit any tab online and save it as your Personal.

You can edit, replace or remove any tab part or add personal notes – all changes will be seen only by you.

Personal tabs can be accessed anytime from any device, even offline.
Learn more »
comments
print report bad tab
6 comments total. Showing first comments.
0 reply
ledzepprules09 10 Nov 10, 2006 10:32 AM

Looks perfect dude.. Great job.

0 reply
bassmaniac101 30 Nov 13, 2006 05:23 PM

Perfect.

0 reply
MetalBassist93 345 Jan 13, 2007 02:38 PM

I think that the very end is
E|5-5-5-5| x2
But i'm not too sure
Nice tab though *5 stars*

guest
You may want to rate the tab now too:
select rating
Wanna post a correction for this tab? Suggest correction