Oops, an error
Loading. Please wait.

Baby You Wouldnt Last A Minute On The Creek Tab

version 1
version 1

Intro

Whole song

Interactive

52,266 views 1 this week
9 commentsread comments
1 2 3 4 5
x 13
add to favorites
launch autoscroll
font size
0
reset
how to read this tab
guitar tuner
Autoscroll
slow
fast
+/-
esc
set tempo
stop
Help us to improve Ultimate-Guitar.com Take our survey!
×
Difficulty
intermediate
here is the intro and sorry its the only thing i actually took the time to learn.

e-----------------------------------|
B---10-8-6-5-6-8-6---6-6---6-6---6--|
G--7--7-7-7-7-7-7-7-7-7-7-7-7-7-7-7-|        repeat alot
D-0----------------8-----7-----7----|
A-----------------------------------|
E-----------------------------------|
Suggest correction
comments
print report bad tab
9 comments total. Showing first comments.
0 reply
aron444 708 Jun 26, 2006 04:25 PM

Listen again. Last part is wrong. Will post when i got it.

+3 reply
aron444 708 Jun 26, 2006 04:40 PM

Intro:
|-----------------------------------|
|---10-8-6-5-6-8-6---6-6---5-5---5--|
|--7--7-7-7-7-7-7-7-7-7-7-7-7-7-7-7-|
|-0----------------8-----5-----5----|
|-----------------------------------|
|-----------------------------------|
I play it this way

OR:

|----5-3-1-0-1-3-1---1-1---0-0---0--|
|---3-3-3-3-3-3-3-3-3-3-3-3-3-3-3-3-|
|------------------3-----0-----0----|
|-0---------------------------------|
|-----------------------------------|
|-----------------------------------|

0 reply
Averna_22 10 Oct 11, 2006 05:02 PM

i prefer the second way because i think it sounds better and its easier to play

guest
You may want to rate the tab now too:
select rating
Wanna post a correction for this tab? Suggest correction