Oops, an error
Loading. Please wait.

Baby You Wouldnt Last A Minute On The Creek intro tab

version 2
version 2

Intro

Whole song

Interactive

by Chiodos
16,373 views 3 this week
4 commentsread comments
1 2 3 4 5
x 5
add to favorites
×
Save as Personal and add changes to this tab that will be seen only by you. Learn more ›
×
You can save this tab as Personal to edit and correct it or add notes. All changes will be seen only by you. Learn more »
launch autoscroll
font size
0
reset
how to read this tab
guitar tuner
edit
Autoscroll
slow
fast
+/-
esc
set tempo
stop
e-----------------------------------|
B---10-8-6-5-6-8-6---6-6---6-6---6--|
G--7--7-7-7-7-7-7-7-7-7-7-7-7-7-7-7-| repeat a couple of times
D-0----------------8-----7-----7----|
A-----------------------------------|
E-----------------------------------|

e-----------------------------------|
b-----------------------------------|
g--7777-9999-1010-10101010-9999-----|
d--7777-9999-1010-8-8-8-8--9999-----|
a--5555-7777-8-8--8-8-8-8--7777-----|
e-----------------------------------|

e-----------------------------------|
b-----------------10101010----------|
g--7777-9999-1010-10101010-12121212-|
d--7777-9999-1010-8-8-8-8--12121212-|
a--5555-7777-8-8-----------10101010-|
e-----------------------------------|
i was messing around and i got this part.. sry about the rest i dont feel like getting it

            
            
Suggest correction
Creating personal tab
Creating personal tab
You can edit any tab online and save it as your Personal.

You can edit, replace or remove any tab part or add personal notes – all changes will be seen only by you.

Personal tabs can be accessed anytime from any device, even offline.
Learn more »
comments
print report bad tab
4 comments total. Showing first comments.
0 reply
aron444 708 Jun 26, 2006 12:39 PM

Intro:
|-----------------------------------|
|---10-8-6-5-6-8-6---6-6---5-5---5--|
|--7--7-7-7-7-7-7-7-7-7-7-7-7-7-7-7-|
|-0----------------8-----5-----5----|
|-----------------------------------|
|-----------------------------------|
I play it this way

OR:

|----5-3-1-0-1-3-1---1-1---0-0---0--|
|---3-3-3-3-3-3-3-3-3-3-3-3-3-3-3-3-|
|------------------3-----0-----0----|
|-0---------------------------------|
|-----------------------------------|
|-----------------------------------|

0 reply
lespaulman101 31 Aug 07, 2006 09:21 AM

im with aron w/ this 1 but nie tab

0 reply
pHaKe 1,007 Nov 19, 2006 03:41 PM

terrible, just terrible

guest
Wanna post a correction for this tab? Suggest correction