Oops, an error
Loading. Please wait.

Baby You Wouldnt Last A Minute On The Creek bass

version 2
version 2

Whole song

Interactive

by Chiodos
2,536 views 1 this week
1 commentread comment
1 2 3 4 5
x 4
add to favorites
×
Save as Personal and add changes to this tab that will be seen only by you. Learn more ›
×
You can save this tab as Personal to edit and correct it or add notes. All changes will be seen only by you. Learn more »
launch autoscroll
font size
0
reset
guitar tuner
edit
Autoscroll
slow
fast
+/-
esc
set tempo
stop
I did this by ear and I'm pretty sure this is 100% correct if you have any questions, 
or suggestions, please e-mail me at mashedpotato_678@hotmail.com (type something about 
Song name, bass tab, ect. in the subject line.

Intro [x1]
|-----------------------------|
|--00--7-8--5-7----------2----|
|---------------8-10-8-7---3--|
|-----------------------------|

|-----------------------------|
|--00-7-8--5-7----------------|
|--------------8-10-7---------|
|-----------------------------|

Verse [x4] *Btw those are ones*
|-----------------------------|
|-----------------------------|
|-5555-5555--11---------------|
|---------------5555-5555-----|

Pre-chorus [x2] *listen to the song for # of strums on the eights and threes*
|--------------------------------------|
|--------------------------------------|
|-5555----5555-----111-888888----------|
|-----0000----0000---------------------|

|--------------------------------------|
|--------------------------------------|
|-5555----5555-----555-333333----------|
|-----0000----0000---------------------|

Chorus x1
|--------------------------------------|
|--------------------------------------|
|-55555-333333-11-111-111-1------------|
|---------------------------0302-------|

|--------------------------------------|
|--------------------------------------|*Those are tens*
|-55555-333333-88-77-1010-88-7-3-------|
|--------------------------------------|

|--------------------------------------|
|--------------------------------------|
|-55555-333333-11-111-111-1------------|
|---------------------------0302-------|

|--------------------------------------|
|--------------------------------------|
|-55555-333333-88-888-888-888----------|
|--------------------------------------|

Post-Chorus x2
|---------------------------------------------------------------------|
|---------------------------------------------------------------------|
|-55-555-555-555-5-33-333-333-333-3-00-000-000-000-0-11-111-111-111-1-|
|---------------------------------------------------------------------|

Chorus x1
Pre-Chorus x2

After the Pre-Chorus x1 *Slide up from the last three in the Pre-Chorus*
|---------|
|---------|
|--3/5~---|
|---------|

Pre-"Breakdown"
|----------------------------|
|-00--7-8--5-7-----------2---|
|---------------8-10-8-7---3-|
|----------------------------|

|---------------------------|
|-00--7-8--5-7-----------7~-| *Don't let it ring too long*
|---------------8-10-8-7----|
|---------------------------|

Intro x1

"Breakdown" Part One [x4]
|---------------------------------------------|
|---------------------------------------------|
|-----8888-77-101010-----12121212-10-8-10-8-7-|
|-0000--------------0000----------------------|

"Breakdown" Part 2A [x5]
|---------|
|---------|
|---------|
|-0-0-0-0-|

"Breakdown" Part 2B [x1]
|-------------|
|-------------|
|-8~-7~-4~-5~-|
|-------------|

Post-Chorus x2
Pre-Chorus x2

Ending [x1]
|---------------|
|---------------|
|-/5555---------|
|--------0000---|


Side note:
If "Breakdown" 2A and 2B are boring I've also figured out and tabbed the part that Jason 
plays.

Here it is:

|--------------------------------------|
|--------------------------------------|
|------8-7-8-10-8-7-3-5----------------|
|-0000---------------------------------|

|--------------------------------------|
|------------5-7-5---------------------|
|------8-7-8-------8-7-----------------|
|-0000---------------------------------|

|--------------------------------------|
|--------------------------------------|
|------8-7-8-10-8-7-3-5----------------|
|-0000---------------------------------|

|--------------------------------------|
|------------5-7-5---------------------|
|------8-7-8-------8-7-----------------|
|-0000---------------------------------|

|------------------------------------------|
|------8-7-5-------------------------------|
|------------8-7~-8~-7~-4~-5~--------------|
|-0000-------------------------------------|


I hope it was easy to read and everything...I'm pretty positive it's 100%.
Suggest correction
Creating personal tab
Creating personal tab
You can edit any tab online and save it as your Personal.

You can edit, replace or remove any tab part or add personal notes – all changes will be seen only by you.

Personal tabs can be accessed anytime from any device, even offline.
Learn more »
comments
print report bad tab
1 comment total.
0 reply
mr.johnsexydavi 10 Jul 25, 2010 02:07 PM

awesome, except it's pretty inefficient

guest
You may want to rate the tab now too:
select rating
Wanna post a correction for this tab? Suggest correction