Oops, an error
Loading. Please wait.

Beautiful Blue Eyes tab

version 1
version 1

Whole song

by Chiodos
9,872 views 1 this week
3 commentsread comments
1 2 3 4 5
x 3
add to favorites
×
Save as Personal and add changes to this tab that will be seen only by you. Learn more ›
×
You can save this tab as Personal to edit and correct it or add notes. All changes will be seen only by you. Learn more »
launch autoscroll
font size
0
reset
how to read this tab
guitar tuner
edit
Autoscroll
slow
fast
+/-
esc
set tempo
stop
Band: Chiodos
Song: Beautiful Blue Eyes
Tabbed by: Chelsea Perez
E-mail: danradsno1fan@yahoo.com


I'm not sure if it's a very popular song and I'm assuming it's an old one by them. But I love it.
And I'm not so sure about the strumming, but if you listen to the song, you'll know for sure.



Intro

|-0h2---3-----2-----0h2---0-----0-----|
|-3-----3-----3-----3-----2-----3-----|
|-2-----2-----2-----2-----2-----2-----|     (2x)
|-0-----0-----0-----0-----0-----0-----|
|-x-----x-----x-----x-----x-----x-----|
|-x-----x-----x-----x-----x-----x-----|


Verse
 
|-x-----x-----x-----x-----|
|-x-----x-----x-----x-----|
|-x-----7-----2-----4-----|     (8x)
|-5-----7-----2-----4-----|
|-5-----5-----0-----2-----|
|-3-----x-----x-----x-----|


Chorus

|-x-----x-----x-----x-----x-----x-----x------x-----|
|-x-----x-----x-----x-----x-----x-----x------x-----|
|-x-----4-----2-----4-----x-----4-----7------7-----|     (2x)
|-5-----4-----2-----4-----5-----4-----7------7-----|
|-5-----2-----0-----2-----5-----2-----5------4-----|
|-3-----x-----x-----x-----3-----x-----x------x-----|


Repeat

Then:
Intro one last time.
Chorus one last time.




And that's pretty much it. =]

            
            
Suggest correction
Creating personal tab
Creating personal tab
You can edit any tab online and save it as your Personal.

You can edit, replace or remove any tab part or add personal notes – all changes will be seen only by you.

Personal tabs can be accessed anytime from any device, even offline.
Learn more »
Give kudos to tab author, rate the tab!
1 2 3 4 5
comments
print report bad tab
3 comments total.
0 reply
Rebirah 256 Jul 17, 2006 07:40 AM

Awesome! would you mind if I Guitar Pro'd it?

0 reply
Trevor6 20 Oct 01, 2006 03:30 PM

I don't think any things is right in this tab

0 reply
who the****am I 10 Aug 01, 2010 12:00 PM

i agree with trevor6

guest
You may want to rate the tab now too:
select rating
Wanna post a correction for this tab? Suggest correction