Oops, an error
Loading. Please wait.

Bulls Make Money Bears Make Money Pigs Get Slaughtered bass

version 1
version 1

Whole song

Interactive

by Chiodos
7,466 views 1 this week
2 commentsread comments
1 2 3 4 5
x 6
add to favorites
×
Save as Personal and add changes to this tab that will be seen only by you. Learn more ›
×
You can save this tab as Personal to edit and correct it or add notes. All changes will be seen only by you. Learn more »
launch autoscroll
font size
0
reset
guitar tuner
edit
Autoscroll
slow
fast
+/-
esc
set tempo
stop
Difficulty
intermediate
Key
+  Palm Mute
~  Let Note Ring

*I suggest using a pick 

Intro Pt 1

G  |--R------|
D  |---E-----|
A  |----S----| x2
D  |-----T---|



Intro Pt 2

G  |------------------|
D  |------------------|
A  |---5---5---5------| x2
D  |-0---0---5----2-2-|

Verse

G  |------------------|
D  |------------------|
A  |------------------| x4
D  |-0--00--5--2-2-2--|

Chorus

G  |-R-----------------------------------------------------------|
D  |-E-----------------------------------------------------------|
A  |-S-----------------------------------------------------------| x2
D  |-T-----------0-0-0-0-0-0-7-7-7-7-7-7-5-5-5-5-5-5-2-2-2-2-2-2-|

solo

G  |-2---------3---------------1--------3-------------|
D  |---3-5-2-----5-2-3-----2-3---3--5-2---2-5-2---2-3-|
A  |---------4---------5-4----------------------4-----| x2
D  |--------------------------------------------------|

Verse

G  |------------------|
D  |------------------|
A  |------------------| x4
D  |-0--00--5--2-2-2--|

Bridge

G  |---------------------------------------|
D  |---------------------------------------|
A  |---------------------------------------| x2
D  |-0000000000000000--55555555--22222222--|

Breakdown Pt 1                                          

G  |-----------------------|
D  |-----------------------|
A  |-----------------------|x3                                            
D  |-0-0-00~~~~~~~0~~~~~~--|
     + + ++       +

Breakdown Pt 2

G  |-------------------------------------|
D  |-------------------------------------|
A  |-------------------------------------| x4
D  |-00000000-77777777-22222222-55555555-|

Strum the 7’s harder


Chorus
 Don’t play 0’s first time
G  |--------------|-------------------------------------|
D  |--------------|-------------------------------------|
A  |--------------|-------------------------------------| x3
D  |--0-0-0-0-0-0-|-7-7-7-7-7-7-5-5-5-5-5-5-2-2-2-2-2-2-|

Outro
  
G  |------------------|
D  |------------------|
A  |------------------| x2
D  |--0~~0~~0~~0~~--0-|
            Follow the beat with the 0’s until the end

pretty much 100% right


            
            
Suggest correction
Creating personal tab
Creating personal tab
You can edit any tab online and save it as your Personal.

You can edit, replace or remove any tab part or add personal notes – all changes will be seen only by you.

Personal tabs can be accessed anytime from any device, even offline.
Learn more »
comments
print report bad tab
2 comments total.
+3 reply
Ravishing Gary 72 Feb 16, 2008 07:38 AM

This tab seems perfect, I give you a 5 star. I also give you a 5 star cause you did a bloody good job on the bass solo

0 reply
Ravishing Gary 72 Feb 16, 2008 07:38 AM

This tab seems perfect, I give you a 5 star. I also give you a 5 star cause you did a bloody good job on the bass solo

guest
Wanna post a correction for this tab? Suggest correction