Oops, an error
Loading. Please wait.

Bulls Make Money Bears Make Money Pigs Get Slaughtered bass

version 2
version 2

Whole song

Interactive

by Chiodos
2,848 views 1 this week
1 commentread comment
1 2 3 4 5
x 3
add to favorites
×
Save as Personal and add changes to this tab that will be seen only by you. Learn more ›
×
You can save this tab as Personal to edit and correct it or add notes. All changes will be seen only by you. Learn more »
launch autoscroll
font size
0
reset
guitar tuner
edit
Autoscroll
slow
fast
+/-
esc
set tempo
stop
Drop D Tunning	
Song: Bulls make money, Pigs get…

Intro part 1 (no bass)
Intro part 2 x2
G|--7--7----12---9--------------|
D|------------------------------|
A|—5-55—5/10-10/7-7-------------|
D|------------------------------|

Verse x4
G|-------------------------|
D|-------------------------|
A|-------------------------|
D|-0-00-5/2-2-2------------|

Chorus x2
G|-----------------------------------------|
D|-----------------------------------------|
A|-----------------------------------------|
D|--00000-77777-55555-22222----------------|

***Listen to the song to find correct timing***
G|--2--------3---------------1--------3-------------|
D|---3-5-2-----5-2-3-----2-3---3--5-2---2-5-2-------|
A|---------4---------5-4----------------------4~----| 
D|--------------------------------------------------|

Verse x4
Bridge x2
G|---------------------------------------|
D|---------------------------------------|
A|---------------------------------------| 
D|-000000000--55555555--22222222---------|

Breakdown part 1 x3                                         
Dnt know if there is any bass playing but you can play this…
G|-----------------------|
D|-----------------------|
A|-----------------------|  Let it ring on last note                                          
D|-0-0-00-0~-------------|

Breakdown part 2 x4
G|-------------------------------------|
D|-------------------------------------|
A|-------------------------------------|
D|-00000000-77777777-22222222-55555555-|

Chorus x3
Outro x2
Not sure about this part either but this works…
G|------------------|
D|------------------|
A|------------------|
D|--0—0-0—0---0~----|

            
            
Suggest correction
Creating personal tab
Creating personal tab
You can edit any tab online and save it as your Personal.

You can edit, replace or remove any tab part or add personal notes – all changes will be seen only by you.

Personal tabs can be accessed anytime from any device, even offline.
Learn more »
Give kudos to tab author, rate the tab!
1 2 3 4 5
comments
print report bad tab
1 comment total.
0 reply
Pandasrule4ever 52 Apr 23, 2012 03:58 PM

Great tab bro! 5 ***** :D

guest
You may want to rate the tab now too:
select rating
Wanna post a correction for this tab? Suggest correction