Oops, an error
Loading. Please wait.

I Didnt Say I Was Powerful I Said I Was A Wizard bass

version 1
version 1

Whole song

Interactive

by Chiodos
1,113 views 1 this week
no commentswrite comment
1 2 3 4 5
2 more votes to show rating
add to favorites
×
Save as Personal and add changes to this tab that will be seen only by you. Learn more ›
×
You can save this tab as Personal to edit and correct it or add notes. All changes will be seen only by you. Learn more »
launch autoscroll
font size
0
reset
guitar tuner
edit
Autoscroll
slow
fast
+/-
esc
set tempo
stop
++++++++++++++++++++++++++++++++++++++++++++++++++++++++++++++
| Chiodos- I Didnt Say I Was Powerful, I Said I Was A Wizard |
++++++++++++++++++++++++++++++++++++++++++++++++++++++++++++++


"The album started skipping..."


Tuning: Drop D (DADG)



Intro
1.
G|-----------------------------------------------------------------|
D|-----------------------------------------------------------------|
A|-----------------------------------------------------------------|
D|-4-4-4-4-3-3-3-3-0-0-0-0-3-3-3-3-4-4-4-4-3-3-3-3-0-0-0-0-3-3-3-3-|

Verse
"Attention, all my worst critics..."
2.
G|-------------------------------------------------------------------------|
D|-------------------------------------------------------------------------|
A|-------------------------------------------------------00000000----------|
D|-44444444-44444444-33333333-33333333-00000000-00000000----------22222222-|

Pre-Chorus
"Into romantic speculations..."
3.
G|---------------------------------------------------------------|
D|---------------------------------------------------------------|
A|---------------------------------------------------------------|
D|-4~--------------------------------------------------------3-3-|

Chorus
"Sightings of shape shifting..."
4.
G|-------------------------------------------------|
D|-------------------------------------------------|
A|-------------------------------------------------|--x2
D|-4-4-444-4-4-3-3-333-3-3-0-0-000-0-0-2-2-233-3-3-|

Verse
"Theatrics all made up..."
5.
G|-------------------------------------------------------------------------|
D|-------------------------------------------------------------------------|
A|-------------------------------------------------------00000000----------|--x2
D|-44444444-44444444-33333333-33333333-00000000-00000000----------22222222-|

Pre-Chorus
"Into romantic speculations..."
6.
G|---------------------------------------------------------------|
D|---------------------------------------------------------------|
A|---------------------------------------------------------------|
D|-4~--------------------------------------------------------3-3-|

Chorus
"Sightings of shape shifting..."
7.
G|-------------------------------------------------|
D|-------------------------------------------------|
A|-------------------------------------------------|--x2
D|-4-4-444-4-4-3-3-333-3-3-0-0-000-0-0-2-2-233-3-3-|

Bridge
"As if he were afraid..."
8.
G|-------------------------------------------------|
D|-------------------------------------------------|
A|-------------------------------------------------|
D|-4-4-4-4-4-4-4-4-4-4-4-4-3-3-3-3-3-3-3-3-3-3-3-3-|

9.
G|-----------------------------------------------------------------|
D|-----------------------------------------------------------------|
A|-----------------------------------------------------------------|
D|-4-4-4-4-3-3-3-3-0-0-0-0-3-3-3-3-4-4-4-4-3-3-3-3-0-0-0-0-3-3-3-3-|

Chorus
"Sightings of shape shifting..."
10.
G|-------------------------------------------------|
D|-------------------------------------------------|
A|-------------------------------------------------|--x2
D|-4-4-444-4-4-3-3-333-3-3-0-0-000-0-0-2-2-233-3-3-|

"Sightings of shape shifting..."
11.
G|-------------------------------------------------|
D|-------------------------------------------------|
A|-------------------------------------------------|
D|-7-7-777-7-7-6-6-666-6-6-4-4-444-4-4-0-0-000-0-0-|


Please rate thanks!!


Lyrics:

And the moment that she left the room 
The album started skipping
Goodbye to beauty, shared with the ones that you love
A shadow that has fallen over this town
A shadow that has fallen over this town

Attention, all of my worst critics 
Who were once the best of friends
You're all just crows on the power lines

Into romantic speculations

Sightings of shape shifting
Dissolved into the darkness
A final opinion is of less value 
Than an appreciation of,
And tolerance for obscurity

Theatrics, all made up and pianos all playing at once through the dust
I found it difficult in my excitement to keep from floating off
To keep from floating off and off and off

I'll rest on nets made by spiders fed on drug dosed flies
The spider sings alone
The spider sings alone
He paced the room with hurried steps
And placed his hands upon his head
As if he were afraid
His thoughts were bursting from his brain



+++++++++++++++++++++++++++++++++
| Raileff                       |
| Underground__Dora@Hotmail.Com |
+++++++++++++++++++++++++++++++++

            
            
Suggest correction
Creating personal tab
Creating personal tab
You can edit any tab online and save it as your Personal.

You can edit, replace or remove any tab part or add personal notes – all changes will be seen only by you.

Personal tabs can be accessed anytime from any device, even offline.
Learn more »
Give kudos to tab author, rate the tab!
1 2 3 4 5
comments
print report bad tab
guest
You may want to rate the tab now too:
select rating
Wanna post a correction for this tab? Suggest correction