Oops, an error
Loading. Please wait.

Intensity In Ten Cities bass

version 1
version 1

Whole song

Interactive

by Chiodos
2,433 views 1 this week
9 commentsread comments
1 2 3 4 5
x 4
add to favorites
×
Save as Personal and add changes to this tab that will be seen only by you. Learn more ›
×
You can save this tab as Personal to edit and correct it or add notes. All changes will be seen only by you. Learn more »
launch autoscroll
font size
0
reset
guitar tuner
edit
Autoscroll
slow
fast
+/-
esc
set tempo
stop
Author
-------------------------------------------------------------------------------
   Intensity In Ten Cities - Chiodos
-------------------------------------------------------------------------------

Tabbed By: Valerie L. 
e-mail: iloled@yahoo.com
Tuning: standard

bass doesn't come in until (2:22)

Verse
G|------------------------|
D|------------------------|
A|7~----5~----3~----5~----|
E|------------------------| x2

Pre-Chorus "How long could you hang onto a word?"
G|-----------------------------------|
D|-----------------------------------|
A|33333333-55555555-7777777777777777-|
E|-----------------------------------| x2

Chorus
G|---------------------------------------------------------------------|
D|5--55-55-55-55-5-5-4-44-44-44-4-4------------------------------------|
A|----------------------------------3-33-33-33-3-3-3-5-55-55-55-55-5-5-|
E|---------------------------------------------------------------------| x2

Outro Chorus
G|---------------------------------------------------------------------0~-|
D|-5555555555555555-4444444444444444--------------------------------------|
A|-----------------------------------3333333333333333-5555555555555555----|
E|------------------------------------------------------------------------|

            
            
Suggest correction
Creating personal tab
Creating personal tab
You can edit any tab online and save it as your Personal.

You can edit, replace or remove any tab part or add personal notes – all changes will be seen only by you.

Personal tabs can be accessed anytime from any device, even offline.
Learn more »
comments
print report bad tab
9 comments total. Showing first comments.
0 reply
kneesknees 10 Sep 15, 2007 08:49 AM

these are the tabs to "intensity in ten cities"

0 reply
Amory 10 Sep 15, 2007 05:34 PM

yea you have the wrong song name. Great tab though

0 reply
iheart_a7x 3,681 Sep 15, 2007 06:51 PM

Oopsies.

cause I downloaded it so i guess I got this song lol.

guest
You may want to rate the tab now too:
select rating
Wanna post a correction for this tab? Suggest correction