Oops, an error
Loading. Please wait.

Intensity In Ten Cities Tab

version 1
version 1

Whole song

Interactive

11,565 views 1 this week
1 commentread comment
1 2 3 4 5
1 last vote to show rating
add to favorites
launch autoscroll
font size
0
reset
how to read this tab
guitar tuner
Autoscroll
slow
fast
+/-
esc
set tempo
stop
Help us to improve Ultimate-Guitar.com Take our survey!
×
Author
it is tuned in Drop D you can also play it with a capo in the 3rd fret.
if somethings wrong email me at kemaro08@yahoo.com
edge_fencer@yuurok.com and kemaro08@yahoo.com my friendster
you can also watch my video on youtube just search for kemaro08..
thanks..

intro:
E|-----3--5-3--2-3--------|
B|----3-3-----3-----------|
G|---0---0-0-0------------| this is the first
D|--0---------------------|
A|------------------------|
D|-5----------------------|

E|-----3--5-7-5-3-2-3-----|
B|----3-3-----------------|
G|---0---0-0-0------------|
D|--0---------------------| the second with high notes
A|------------------------|
D|-5----------------------|

E|-----3--5-3--2-3--------|
B|----3-3-----3-----------|
G|---0---0-0-0------------|
D|--0---------------------|
A|-3----------------------|
D|------------------------|

E|-----3--2-2-2-2-2-------|
B|----3-3----3-3-3--------|
G|---0---0-0--------------|
D|--0---------------------|
A|-3----------------------|
D|------------------------|

i play also the verse with the intr0 but u can play it with chords

heres the chords for the verse..


E|--------3-------|
B|--------3-------|
G|----------------|
D|----------------|
A|----------------|
D|--------5-------|
   im not the one that you want..


E|---x------------|
B|---x------------|
G|---2------------|
D|----------------|
A|---x------------|
D|---x------------|
   ill only let you down...


E|------X---------------|---x------|
B|------X---------------|---x------|
G|------12--------------|---2------|
D|------10--------------|----------|
A|------10--------------|---x------|
D|------10--------------|---x------|
  and im pretty sure that youve caught on..

and so on..


E|--x-------------|
B|--x-------------|
G|--4-------------|
D|--2-------------|
A|--2-------------|
D|--2-------------|
   i think its everytime

E|---x------------|
B|---x------------|
G|---2------------|
D|----------------|
A|---x------------|
D|---x------------|
   i walk into a room

E|------X---------------|---x--------|
B|------X---------------|---x--------|
G|------12--------------|---14-------|
D|------10--------------|---12-------|
A|------10--------------|---12-------|
D|------10--------------|---12-------|

a silence so sudden       that i seem to hear it..

and so on..


E|------X----|----x---------|---x-------|
B|------X----|----x---------|---x-------|
G|------12---|----14--------|---16------|
D|------10---|----12--------|---14------|
A|------10---|----12--------|---14------|
D|------10---|----12--------|---14------|
    tell me how long could you hang onto a word.. 2x


Chorus:

E|--------x-------|
B|--------x-------|
G|--------7-------|
D|--------5-------|
A|--------5-------|
D|--------5-------|
   im not the one that you want..


E|---x------------|
B|---x------------|
G|---2------------|
D|----------------|
A|---x------------|
D|---x------------|
   ill only let you down...


E|------X---------------|---x--------|
B|------X---------------|---x--------|
G|------12--------------|---14-------|
D|------10--------------|---12-------|
A|------10--------------|---12-------|
D|------10--------------|---12-------|
  and im pretty sure that youve caught on..
Suggest correction
Give kudos to tab author, rate the tab!
1 2 3 4 5
comments
print report bad tab
1 comment total.
0 reply
rpeter47 10 Feb 04, 2010 06:48 PM

amazing job, sounds %100 to me, and i prefer your version over either capo 3rd or 5th

guest
You may want to rate the tab now too:
select rating
Wanna post a correction for this tab? Suggest correction