Oops, an error
Loading. Please wait.

Is It Progression If A Cannibal Uses A Fork intro tab

version 1
version 1

Intro

Whole song

Interactive

by Chiodos
3,898 views 1 this week
2 commentsread comments
1 2 3 4 5
1 last vote to show rating
add to favorites
×
Save as Personal and add changes to this tab that will be seen only by you. Learn more ›
×
You can save this tab as Personal to edit and correct it or add notes. All changes will be seen only by you. Learn more »
launch autoscroll
font size
0
reset
how to read this tab
guitar tuner
edit
Autoscroll
slow
fast
+/-
esc
set tempo
stop
Author
---------------------------------------------------------------------------
        Is it progression if a cannibal uses a fork? - Chiodos
---------------------------------------------------------------------------
Tabbed by: nategarcia
Email: nate_gibsonstudio@yahoo.com

Tuning: drop d

e|-------------------------------------------------------------------------|
B|-6-----6-----5----6-----8-----6---5-----5-----8---6-----6-----6----------|
G|---7-7---7-7---7----7-7---7-7---7---6-6---6-6---6---6-6---6-6---6--------|
D|-------------------------------------------------------------------------|
A|-------------------------------------------------------------------------|
D|-------------------------------------------------------------------------|

e|-------------------------------------------------------------------------|
B|-8-----8-----10---11-----10-----8---6-----6-----8---5-----5-----5--------|
G|---7-7---7-7----7----7-7----7-7---7---7-7---7-7---7---6-6---6-6---6------|
D|-------------------------------------------------------------------------|
A|-------------------------------------------------------------------------|
E|-------------------------------------------------------------------------|
(repeat twice)

e|-------------------------------------------------------------------------|
B|-6-----6-----5----6-----8-----6---5-----5-----8---6-----6-----6----------|
G|---7-7---7-7---7----7-7---7-7---7---6-6---6-6---6---6-6---6-6---6--------|
D|-------------------------------------------------------------------------|
A|-------------------------------------------------------------------------|
D|-------------------------------------------------------------------------|

e|-----------------------------------------------|-------------------------|
B|-8-----8-----10---11-----10-----8--------------|-------------------------|
G|---7-7---7-7----7----7-7----7-7---7---10-10--9-|---------------10--14----|
D|--------------------------------------x---x--x-|----------------x---x----|
A|--------------------------------------8--12--7-|----------------8--12----|
D|-----------------------------------------------|-second-time-do----------|

e|--------------------------------------------------------------------------|
B|-----------------------------------------------------------------do-------|
G|-----------14-10--10-------------10--9--10--7777-9999-12121212--this------|
D|------------x--x---x--------------x--x--x---xxxx-xxxx--x-x-x-x--twice-----|
A|-0-0-0-0---12--8--12---0-0-0-0----8--7--8---5555-7777-10101010------------|
D|-0-0-0-0---------------0-0-0-0--------------------------------------------|

e|--------------------------------------------------------------------------|
B|----6--6--3--5-----3--2---------------------------------------------------|
G|-------------------------4--1------3-4-3-1-------3------------------------|
D|-------------------------------3*----------4-3-4---0-3--------------------|
A|-0--------------7---------------------------------------------------------|
D|-0--------------7---------------------------------------------------------|

e|----------------------------------------------------------------------------|
B|----------------------------------------------------------------------------|
G|--5-5-5-5-14-14-14-15-15-15-10-10-------------------------------------------|
D|--x-x-x-x--x--x--x--x--x--x-x-----------------------------------------------|
A|--7-7-7-7-12-12-12-13-13-13-8-----------------------------------------------|
D|----------------------------------------------------------------------------|

            
            
Suggest correction
Creating personal tab
Creating personal tab
You can edit any tab online and save it as your Personal.

You can edit, replace or remove any tab part or add personal notes – all changes will be seen only by you.

Personal tabs can be accessed anytime from any device, even offline.
Learn more »
Give kudos to tab author, rate the tab!
1 2 3 4 5
comments
print report bad tab
2 comments total.
0 reply
jo3myster 247 Jun 12, 2008 04:09 PM

Great tab!
And heres the little breakdown thing, I'm giving you this because I want you to tab the whole song, and I want to make it easier if you do. PLEASE TAB IT! (I'M TO LAZY TO)

|----------------------------------------------------------|
|----------------------------------------------------------|
|----10-10-10/7-7\9-9~---7p6-------------------------------|
|--0-------------------0----8-5-7*--7-8-7----------7-------|
|--0-------------------0-----------------8-10-8--8---7-10--|
|--0-------------------0-----------------------------------|

0 reply
nategarcia 43 Oct 07, 2008 11:23 AM

Thanks dude! It would have been finished a long time ago but my sister erased all of it! And i think you have that wrong.

guest
You may want to rate the tab now too:
select rating
Wanna post a correction for this tab? Suggest correction