Oops, an error
Loading. Please wait.

Lexington bass

version 1
version 1

Whole song

Interactive

by Chiodos
1,458 views 3 this week
no commentswrite comment
1 2 3 4 5
1 last vote to show rating
add to favorites
×
Save as Personal and add changes to this tab that will be seen only by you. Learn more ›
×
You can save this tab as Personal to edit and correct it or add notes. All changes will be seen only by you. Learn more »
launch autoscroll
font size
0
reset
guitar tuner
edit
Autoscroll
slow
fast
+/-
esc
set tempo
stop
Author
Difficulty
Lexington (Joey Pea-Pot with a Monkey Face)
By: Chiodos

~ This means hold the note

There are two ways to do the intro to this song.The easy way and the hard way. There are 
other bass tabs for this song so i decided to make one. I made this tab based off what
seen live and on what the piano is playing.

                 EASY Intro
G|-------|---------------------|--------|----------------|
D|-------|---------------------|-(x3)---|-------------8-7|
A|--17/--|-------------5~------|--------|---------5~-----|
E|-------|---3~---1~------6-5--|--------|-3~--1~---------|

                 Hard Intro
G|-------|---------3~-------2~-----7-------------------|------|---7------|
D|-------|-------5--------3------7---5-7---8-7-5---5-7-|-(x3)-|--7---8-7-|
A|--17/--|-----5--------3------5---------5-------8-----|------|-5--5-----|
E|-------|---3--------1--------------------------------|------|----------|

^In this section you could either do bass tapping or sweeping. I prefer sweeping because 
to do the last section. If you want to know the speed of it skip to 1:40 in the song 
hear the piano part but it's the same notes/speed.

                    VERSE
G|-------------------------------------------|-----|
D|-------------------------------------------|-(x2)|
A|-------------------------6~~~~~----5~~~~~--|-----|
E|----3~~~~~----2~~~~~~----------------------|-----|

G|-------------------------------------------|
D|-------------------------------------------|
A|--------------------6(x16)--5(x16)---------|
E|----3(x16)--2(x16)-------------------------|

                         CHORUS
G|------------------------------------------------------|
D|-------------5----------5--5-----------4--------4--4--|
A|------------------------------------------------------|
E|----3-3-3~--3---3-3~--3--3----2-2-2~--2---2-2~-2--2---|
                                                           (x2)
G|------------------------------------------------------|
D|-------------8----------8--8--------------------------|
A|----6-6-6~--6---6-6~--6--6----5-5-5-5~----------------|
E|---------------------------------------6(x8)-8(x8)----|
Listen to the orchestra music during the chorus to figure out the pattern

        Piano Part
G|----------------------|
D|----------------------|
A|----------------------|
E|----3~~~~~~~~~~~~~----|
Hold note through out piano playing. You do the same thing the next time the piano plays 
itself.

Go to Verse
Then Chorus

Guitar Solo
G|----------------------------------|-----|--------------------------|------|
D|----------------------------------|-----|--------------------------|------|
A|----------------------------------|-(x2)|-------------------6~-6~--|-(x2)-|
E|---15~-15~-14~-14~-13~-13~-11~-11~|-----|--3~-3~-2~-2~-1~-1~-------|------|

Go to chorus

The End =]

            
            
Suggest correction
Creating personal tab
Creating personal tab
You can edit any tab online and save it as your Personal.

You can edit, replace or remove any tab part or add personal notes – all changes will be seen only by you.

Personal tabs can be accessed anytime from any device, even offline.
Learn more »
Give kudos to tab author, rate the tab!
1 2 3 4 5
comments
print report bad tab
guest
You may want to rate the tab now too:
select rating
Wanna post a correction for this tab? Suggest correction