Oops, an error
Loading. Please wait.

Lexington bass

version 2
version 2

Whole song

Interactive

by Chiodos
181 views 1 this week
no commentswrite comment
1 2 3 4 5
3 more votes to show rating
add to favorites
×
Save as Personal and add changes to this tab that will be seen only by you. Learn more ›
×
You can save this tab as Personal to edit and correct it or add notes. All changes will be seen only by you. Learn more »
launch autoscroll
font size
0
reset
guitar tuner
edit
Autoscroll
slow
fast
+/-
esc
set tempo
stop
Author
Difficulty
Intro
|--------------|x4
|--------------|
|--------5-----|
|--3--1----6-5-|

Verse
|------------------------|x2
|------------------------|
|------------6----5--4---|
|--3----2--------------2-|

|----------------------------------|
|----------------------------------|
|----------------6(x16)--5(x16)----|
|--3(x16)--2(x16)------------------|

Courus
|------------------------------------------------------------------------------|
|---------------------------------------------------8-----8---8----------------|
|-----------5-----5---5--------4-----4---4-6-6-6--6---6-6---6---5-5-5-5--------|
|--3-3-3--3---3-3---3---2-2-2----2-2---2--------------------------------6(x6)--|

-----------|x2
-----------|
-----------|
-8(x6)-----|

Then when the piano pays you just hold don the 3rd fret on the E string the whole time.
then you go back to the verse and the courus

Guitar Solo
|-----------------------------------|x2
|-----------------------------------|
|-----------------------------------|
|--15-15--15-14-14--13-13--13-12-12-|

|-------------------------|x2
|-------------------------|
|---------------------6-6-|
|--3-3--3-2-2--1-1--1-----|

you keep doing that the whole time during the guitar solo

then you go to the cuorus again and end

            
            
Suggest correction
Creating personal tab
Creating personal tab
You can edit any tab online and save it as your Personal.

You can edit, replace or remove any tab part or add personal notes – all changes will be seen only by you.

Personal tabs can be accessed anytime from any device, even offline.
Learn more »
Give kudos to tab author, rate the tab!
1 2 3 4 5
comments
print report bad tab
guest
You may want to rate the tab now too:
select rating
Wanna post a correction for this tab? Suggest correction