Oops, an error
Loading. Please wait.

Lindsay Quit Lollygagging Tab

version 1
version 1

Acoustic

Whole song

Interactive

11,242 views 6 this week
6 commentsread comments
1 2 3 4 5
x 5
add to favorites
launch autoscroll
font size
0
reset
how to read this tab
guitar tuner
Autoscroll
slow
fast
+/-
esc
set tempo
stop
Help us to improve Ultimate-Guitar.com Take our survey!
×
Author
Difficulty
Lindsay, Quit Lollygagging (Acoustic)

This is definitely not a popular song and there’s probably only a few out there that
it but it’s easy. I figured it out in about 2 seconds. Figuring out the strumming is easy
I have my acoustic tuned to C#, G#, C#, F#, A#, D#, but it wouldn’t be too hard to 
out how to play it tuned differently.

D#|---------------------|
A#|---------------------|
F#|--7------------------|
C#|--7-------5-------7--| x4
G#|--5-------5-------7--|
C#|----------5-------7--|

D#|-------------------------------------------|
A#|-------------------------------------------|
F#|-------------------------------------------|
C#|--9-------7-------5-------9-------5-------7| x2
G#|--9-------7-------5-------9-------5-------7|
C#|--9-------7-------5-------9-------5-------7|


D#|---------------------|
A#|---------------------|
F#|--7------------------|
C#|--7-------5-------7--| x2
G#|--5-------5-------7--|
C#|----------5-------7--|

D#|-------------------------------------------|
A#|-------------------------------------------|
F#|-------------------------------------------|
C#|--9-------7-------5-------9-------5-------7| x2
G#|--9-------7-------5-------9-------5-------7|
C#|--9-------7-------5-------9-------5-------7|

D#|---------------------------|
A#|---------------------------|
F#|--7-7-7-7------------------|
C#|--7-7-7-7----7-7-7-7----5--| x4
G#|--5-5-5-5----7-7-7-7----5--|
C#|-------------7-7-7-7----5--|

D#|-------------------------------------------|
A#|-------------------------------------------|
F#|-------------------------------------------|
C#|--9-------7-------5-------9-------5-------7| x2
G#|--9-------7-------5-------9-------5-------7|
C#|--9-------7-------5-------9-------5-------7|

D#|-------------------------------|
A#|-------------------------------|
F#|--7-7-7-7----------------------|
C#|--7-7-7-7----7-7-7-7----5----7~| x4
G#|--5-5-5-5----7-7-7-7----5----7~|
C#|-------------7-7-7-7----5----7~|
Suggest correction
comments
print report bad tab
6 comments total. Showing first comments.
-1 reply
AVApunk18239 10 Mar 29, 2007 05:02 PM

this tab isntr that good

-1 reply
AVApunk18239 10 Mar 29, 2007 05:03 PM

non acurate

0 reply
disTrawHtxchilD 10 May 07, 2007 06:41 PM

could someone please tab this in standard?

guest
You may want to rate the tab now too:
select rating
Wanna post a correction for this tab? Suggest correction