Oops, an error
Loading. Please wait.

Lindsay Quit Lollygagging Tab

version 1
version 1

Whole song

Interactive

6,070 views 1 this week
no commentswrite comment
1 2 3 4 5
x 3
add to favorites
launch autoscroll
font size
0
reset
how to read this tab
guitar tuner
Autoscroll
slow
fast
+/-
esc
set tempo
stop
Help us to improve Ultimate-Guitar.com Take our survey!
×
Author
Difficulty
Lindsay Quit Lollygagging - Chiodos
Please comment.

Intro-
E---------------------------------------------------------------------|
B---------------------------------------------------------------------|
G-1-1-1-1-1-1-1-1-1-1-1-1-1-1-1-1---4-4-4-4-4-4-4-4---2-2-2-2-2-2-2-2-|
D-2-2-2-2-2-2-2-2-2-2-2-2-2-2-2-2---4-4-4-4-4-4-4-4---2-2-2-2-2-2-2-2-|
A-2-2-2-2-2-2-2-2-2-2-2-2-2-2-2-2---2-2-2-2-2-2-2-2-------------------|
E-----------------------------------2-2-2-2-2-2-2-2-------------------|

E---------------------------------------------------------------------|
B---------------------------------------------------------------------|
G-1-1-1-1-1-1-1-1-1-1-1-1-1-1-1-1---4-4-4-4-4-4-4-4---2-2-2-2-2-2-2-2-|
D-2-2-2-2-2-2-2-2-2-2-2-2-2-2-2-2---4-4-4-4-4-4-4-4---2-2-2-2-2-2-2-2-|
A-2-2-2-2-2-2-2-2-2-2-2-2-2-2-2-2---2-2-2-2-2-2-2-2-------------------|
E-----------------------------------2-2-2-2-2-2-2-2-------------------|

Verse
Bite my tongue, right now the perfect time...
E---------------------------------------------------------------------|
B---------------------------------------------------------------------|
G-1-1-1-1-1-1-1-1-1-1-1-1-1-1-1-1---4-4-4-4-4-4-4-4---2-2-2-2-2-2-2-2-|
D-2-2-2-2-2-2-2-2-2-2-2-2-2-2-2-2---4-4-4-4-4-4-4-4---2-2-2-2-2-2-2-2-|
A-2-2-2-2-2-2-2-2-2-2-2-2-2-2-2-2---2-2-2-2-2-2-2-2-------------------|
E-----------------------------------2-2-2-2-2-2-2-2-------------------|

E---------------------------------------------------------------------|
B---------------------------------------------------------------------|
G-1-1-1-1-1-1-1-1-1-1-1-1-1-1-1-1---4-4-4-4-4-4-4-4---2-2-2-2-2-2-2-2-|
D-2-2-2-2-2-2-2-2-2-2-2-2-2-2-2-2---4-4-4-4-4-4-4-4---2-2-2-2-2-2-2-2-|
A-2-2-2-2-2-2-2-2-2-2-2-2-2-2-2-2---2-2-2-2-2-2-2-2-------------------|
E-----------------------------------2-2-2-2-2-2-2-2-------------------|

Chorus-
I Will be able to sleep at night..
E---------------------|
B---------------------|
G-6-6---4-4-4-4---2---|
D-6-6---4-4-4-4---2---|
A-4-4---2-2-2-2-------|
E---------------------|

With a smile upon her face
E---------------------|
B---------------------|
G-6-6---4-4-4-4---4---|
D-6-6---4-4-4-4---4---|
A-4-4---2-2-2-2---2---|
E-----------------2---|


Instrumantal-
E---------------------------------------------------------------------|
B---------------------------------------------------------------------|
G-1-1-1-1-1-1-1-1-1-1-1-1-1-1-1-1---4-4-4-4-4-4-4-4---2-2-2-2-2-2-2-2-|
D-2-2-2-2-2-2-2-2-2-2-2-2-2-2-2-2---4-4-4-4-4-4-4-4---2-2-2-2-2-2-2-2-|
A-2-2-2-2-2-2-2-2-2-2-2-2-2-2-2-2---2-2-2-2-2-2-2-2-------------------|
E-----------------------------------2-2-2-2-2-2-2-2-------------------|

E---------------------------------------------------------------------|
B---------------------------------------------------------------------|
G-1-1-1-1-1-1-1-1-1-1-1-1-1-1-1-1---4-4-4-4-4-4-4-4---2-2-2-2-2-2-2-2-|
D-2-2-2-2-2-2-2-2-2-2-2-2-2-2-2-2---4-4-4-4-4-4-4-4---2-2-2-2-2-2-2-2-|
A-2-2-2-2-2-2-2-2-2-2-2-2-2-2-2-2---2-2-2-2-2-2-2-2-------------------|
E-----------------------------------2-2-2-2-2-2-2-2-------------------|

(sorry I'm not shure about this partXD)
E---------|
B---------|
G-2-4-6---|
D-2-4-6---|
A---------|
E---------|


Verse
Thought of a smile not being there...
E---------------------------------------------------------------------|
B---------------------------------------------------------------------|
G-1-1-1-1-1-1-1-1-1-1-1-1-1-1-1-1---4-4-4-4-4-4-4-4---2-2-2-2-2-2-2-2-|
D-2-2-2-2-2-2-2-2-2-2-2-2-2-2-2-2---4-4-4-4-4-4-4-4---2-2-2-2-2-2-2-2-|
A-2-2-2-2-2-2-2-2-2-2-2-2-2-2-2-2---2-2-2-2-2-2-2-2-------------------|
E-----------------------------------2-2-2-2-2-2-2-2-------------------|

E---------------------------------------------------------------------|
B---------------------------------------------------------------------|
G-1-1-1-1-1-1-1-1-1-1-1-1-1-1-1-1---4-4-4-4-4-4-4-4---2-2-2-2-2-2-2-2-|
D-2-2-2-2-2-2-2-2-2-2-2-2-2-2-2-2---4-4-4-4-4-4-4-4---2-2-2-2-2-2-2-2-|
A-2-2-2-2-2-2-2-2-2-2-2-2-2-2-2-2---2-2-2-2-2-2-2-2-------------------|
E-----------------------------------2-2-2-2-2-2-2-2-------------------|

Chorus-
I Will be able to sleep at night..
E---------------------|
B---------------------|
G-6-6---4-4-4-4---2---|
D-6-6---4-4-4-4---2---|
A-4-4---2-2-2-2-------|
E---------------------|

With a smile upon her face
E---------------------|
B---------------------|
G-6-6---4-4-4-4---4---|
D-6-6---4-4-4-4---4---|
A-4-4---2-2-2-2---2---|
E-----------------2---|

As long as she's perfectly fine...
E-------------|
B-------------|
G-1---4---2---|
D-2---4---2---|
A-2---2-------|
E-----2-------|

Instrumantial
E-------------------------------------------------------------|
B-------------------------------------------------------------|
G-------------------------------------------------------------|
D-6-6-6-6-6-6-7-7-7-7-7-7-6-6---4-4-4-4-4-4-5-5-5-5-5-5-4-4---|
A-4-4-4-4-4-4-4-4-4-4-4-4-4-4---2-2-2-2-2-2-2-2-2-2-2-2-2-2---|
E-------------------------------------------------------------|

(sorry I'm not shure about this partXD)
E---------------------|
B---------------------|
G-2---4---6---8---9---|
D-2---4---6---8---9---|
A---------------------|
E---------------------|

E---------------------|
B---------------------|
G-2---4---6---8---9---|
D-2---4---6---8---9---|
A---------------------|
E---------------------|

E-------------------------------------------------------------|
B-------------------------------------------------------------|
G-------------------------------------------------------------|
D-6-6-6-6-6-6-7-7-7-7-7-7-6-6---4-4-4-4-4-4-5-5-5-5-5-5-4-4---|
A-4-4-4-4-4-4-4-4-4-4-4-4-4-4---2-2-2-2-2-2-2-2-2-2-2-2-2-2---|
E-------------------------------------------------------------|

E-----------------------------------|
B-----------------------------------|
G-2-2-2-2-2-2-2-2-2-2-2-2-2-2-2-2---|
D-2-2-2-2-2-2-2-2-2-2-2-2-2-2-2-2---|
A-----------------------------------|
E-----------------------------------|

Chorus-
I Will be able to sleep at night..
E---------------------|
B---------------------|
G-6-6---4-4-4-4---2---|
D-6-6---4-4-4-4---2---|
A-4-4---2-2-2-2-------|
E---------------------|

With a smile upon her face
E---------------------|
B---------------------|
G-6-6---4-4-4-4---4---|
D-6-6---4-4-4-4---4---|
A-4-4---2-2-2-2---2---|
E-----------------2---|

As long as she's perfectly fine...
E-------------|
B-------------|
G-1---4---2---|
D-2---4---2---|
A-2---2-------|
E-----2-------|
Suggest correction
Give kudos to tab author, rate the tab!
1 2 3 4 5
comments
print report bad tab
guest
You may want to rate the tab now too:
select rating
Wanna post a correction for this tab? Suggest correction