Oops, an error
Loading. Please wait.

Lindsay Quit Lollygagging Acoustic tab

version 2
version 2

Interactive

by Chiodos
3,864 views 1 this week
1 commentread comment
1 2 3 4 5
x 3
add to favorites
×
Save as Personal and add changes to this tab that will be seen only by you. Learn more ›
×
You can save this tab as Personal to edit and correct it or add notes. All changes will be seen only by you. Learn more »
launch autoscroll
font size
0
reset
how to read this tab
guitar tuner
edit
Autoscroll
slow
fast
+/-
esc
set tempo
stop
Author
Difficulty
this song isn't the most popular song by chiodos, but it is a good song. it is a piano
but i saw them play it live with guitars and i thoguth it sounded much better, so here
the chords, and if u want to see a vid of how the played it, go to youtube and type in 
song name, enjoy

Intro/verse 1&2
E]-0-0-0-0-2-2-0-0-|
a]-2-2-2-2-2-2-0-0-|
d]-2-2-2-2-4-4-2-2-|
g]-1-1-1-1-4-4-2-2-|
b]-0-0-0-0-0-0-0-0-|
e]-0-0-0-0-0-0-0-0-|

Chorus
E]-4-4---2-2---0---4-4---0-0---2~
a]-4-4---2-2---0---4-4---0-0---2~
d]-6-6---4-4---2---6-6---2-2---4~
g]-6-6---4-4---2---6-6---2-2---4~
b]-0-0---0-0---0---0-0---0-0---0~
e]-0-0---0-0---0---0-0---0-0---0~

then repeat verse, chorus then into this part.

(as long as shes perfectly fine)
E]-0---2---0-|
a]-2---2---0-|
d]-2---4---2-|
g]-1---4---2-|
b]-0---0---0-|
e]-0---0---0-|

play that twice and then into the breakdown

E]-4-4-4-2-2-2-0-0-0-0-0-0-|
a]-4-4-4-2-2-2-0-0-0-0-0-0-|
d]-6-7-6-4-6-4-2-4-6-2-4-6-|
g]-6-6-6-4-4-4-2-4-6-2-4-6-|
b]-0-0-0-0-0-0-0-0-0-0-0-0-|
e]-0-0-0-0-0-0-0-0-0-0-0-0-|

then repeat chorus and the post chorus and end on 0-2-2-1-0-0

note:if you want to play it like the piano, pick the chords out the way it sounds in the
and add these little parts in between

E]------------------------------------|
a]------------------------------------|
d]------------------------------------|
g]------------------------------------|
b]----------------------------7-5-4-5-|
e]-7-5-4-0--7-5-4-0--7-5-4-5----------|

            
            
Suggest correction
Creating personal tab
Creating personal tab
You can edit any tab online and save it as your Personal.

You can edit, replace or remove any tab part or add personal notes – all changes will be seen only by you.

Personal tabs can be accessed anytime from any device, even offline.
Learn more »
Give kudos to tab author, rate the tab!
1 2 3 4 5
comments
print report bad tab
1 comment total.
0 reply
AcsticRckr89 162 Feb 28, 2008 01:19 PM

the tab is upside down

guest
You may want to rate the tab now too:
select rating
Wanna post a correction for this tab? Suggest correction