Oops, an error
Loading. Please wait.

Lindsay Quit Lollygagging Tab

version 3
version 3

Whole song

Interactive

598 views 1 this week
no commentswrite comment
1 2 3 4 5
please rate
add to favorites
launch autoscroll
font size
0
reset
how to read this tab
guitar tuner
Tab Pro tools
  • play this tab
  • loop segment
  • change instrument
  • show fretboard
  • metronome
×
Best way to learn
"Lindsay Quit Lollygagging"
Autoscroll
slow
fast
+/-
esc
set tempo
stop
Contributor
Lindsay Quit Lollygagging by Chiodos
Tabbed by:Clayton Chan
Email:ClaytonChan14@yahoo.com

Alright so this is my first tab, but im 100% sure that this is 100% correct
soo enjoy!:]

Tuning:Standard
Intro and Verse (intro and verse are the same play this twice for the intro, 
then singing comes in with verse which is played twice as well.
e|---------------------------------------------------------------------------|
B|---------------------------------------------------------------------------|
G|---6--------X--------X-----------------------------------------------------|
D|---6-x24----4-x12----6-x12-------------------------------------------------|x4
A|---4--------4--------6-----------------------------------------------------|
E|---4--------2--------4-----------------------------------------------------|
Chorus: I will be able to sleep at night...
e|---------------------------------------------------------------------------|
B|---------------------------------------------------------------------------|
G|-------XX-------------------------------XX---------------------------------|
D|---8-8-XX-6-6-6-4~-4-4-4-4-4-4-4----888-XX-4-4-4-6~-6-6-6-6-6-6-6----------|x2
A|---8-8-XX-6-6-6-4~-4-4-4-4-4-4-4----888-XX-4-4-4-6~-6-6-6-6-6-6-6----------|
E|---6-6-XX-4-4-4-2~-2-2-2-2-2-2-2----666-XX-2-2-2-4~-4-4-4-4-4-4-4----------|
Verse 2 The thought of her smile not being there...
e|---------------------------------------------------------------------------|
B|---------------------------------------------------------------------------|
G|---6--------X--------X-----------------------------------------------------|
D|---6-x24----4-x12----6-x12-------------------------------------------------|x2
A|---4--------4--------6-----------------------------------------------------|
E|---4--------2--------4-----------------------------------------------------|
Chorus: I will be able to sleep at night...
e|---------------------------------------------------------------------------|
B|---------------------------------------------------------------------------|
G|-------XX-------------------------------XX---------------------------------|
D|---8-8-XX-6-6-6-4~-4-4-4-4-4-4-4----888-XX-4-4-4-6~-6-6-6-6-6-6-6----------|x2
A|---8-8-XX-6-6-6-4~-4-4-4-4-4-4-4----888-XX-4-4-4-6~-6-6-6-6-6-6-6----------|
E|---6-6-XX-4-4-4-2~-2-2-2-2-2-2-2----666-XX-2-2-2-4~-4-4-4-4-4-4-4----------|
Bridge(rest between first chord change): As long as she's perfectly fine...
e|---------------------------------------------------------------------------|
B|---------------------------------------------------------------------------|
G|---6666-XXXX---------------------------------------------------------------|
D|---6666-6666-4-4-4-4-4-4-4-4-4-4-4-4---------------------------------------|x4
A|---4444-6666-4-4-4-4-4-4-4-4-4-4-4-4---------------------------------------|
E|---4444-4444-2-2-2-2-2-2-2-2-2-2-2-2---------------------------------------|
Chorus: (no vocals until 2nd time around)I will be able to sleep at night...
e|---------------------------------------------------------------------------|
B|---------------------------------------------------------------------------|
G|-------XX-------------------------------XX---------------------------------|
D|---8-8-XX-6-6-6-4~-4-4-4-4-4-4-4----888-XX-4-4-4-6~-6-6-6-6-6-6-6----------|x2
A|---8-8-XX-6-6-6-4~-4-4-4-4-4-4-4----888-XX-4-4-4-6~-6-6-6-6-6-6-6----------|
E|---6-6-XX-4-4-4-2~-2-2-2-2-2-2-2----666-XX-2-2-2-4~-4-4-4-4-4-4-4----------|
Bridge[repeated](rest between first chord change): As long as she's perfectly 
fine... on this second time playing the bridge vocals are sang in a round.
e|---------------------------------------------------------------------------|
B|---------------------------------------------------------------------------|
G|---6666-XXXX---------------------------------------------------------------|
D|---6666-6666-4-4-4-4-4-4-4-4-4-4-4-4---------------------------------------|x4
A|---4444-6666-4-4-4-4-4-4-4-4-4-4-4-4---------------------------------------|
E|---4444-4444-2-2-2-2-2-2-2-2-2-2-2-2---------------------------------------|
End with..
e|---------------------------------------------------------------------------|
B|---------------------------------------------------------------------------|
G|---------------------------------------------------------------------------|
D|---6~----------------------------------------------------------------------|
A|---6~----------------------------------------------------------------------|
E|---4~----------------------------------------------------------------------|

Thanks :] email me with any problems or questions or AIM = Chan TheMan x 14

| /  slide up
| \  slide down
| h  hammer-on
| p  pull-off
| ~  vibrato
| +  harmonic
| x  Mute note
===============================================================================
comments
We did not receive enough feedback on this tab! Please rate:
print report bad tab
1 2 3 4 5
I want to post or [tab]
guest
You may want to rate the tab now too:
select rating
Please do not post tabs as comments. Select "correction" instead!