Oops, an error
Loading. Please wait.

One Day Women Will All Become Monsters bass

version 1
version 1

Whole song

Interactive

by Chiodos
2,178 views 1 this week
2 commentsread comments
1 2 3 4 5
1 last vote to show rating
add to favorites
×
Save as Personal and add changes to this tab that will be seen only by you. Learn more ›
×
You can save this tab as Personal to edit and correct it or add notes. All changes will be seen only by you. Learn more »
launch autoscroll
font size
0
reset
guitar tuner
backing track
0:00
0:00
edit
Autoscroll
slow
fast
+/-
esc
set tempo
stop
Author
Difficulty
Chiodos–One Day Women Will All Become Monsters
Standard Tuning
| /  slide up
| \  slide down
| h  hammer-on
| p  pull-off
| ~  vibrato
| +  harmonic
| x  Mute note

intro
G--------------------|
D--------------------|
A---11-11—33-33------|
D--------------------|

G-----------------------------------|
D-----------------------------------|
A---5-53--5-535---11-13-1-131-------|
D-----------------------------------|

G---------------------|
D---------------------|
A---11-11—33-33-------|
D---------------------|
                                                                                         
                                                                      X2
G--------------------------------------------------------------------------|
D--------------------------------------------------------------------0023--|
A-5555555555555555-1111111111111133-0000000000000000-333333333333333-----3-|
D--------------------------------------------------------------------------|

G-------------------------------------------|
D--------------------------------3-2--------|
A-1--111----1----3----5--555---------3-1----|
D-------------------------------------------|

G--------------------------------------|
D--------------------------------------|
A-1--111----1----3----5----1~--3~------|
D--------------------------------------|
                                            X4
G----------------------------------------------|
D----------------------------------------------|
A----1-11-1----3-33-3----5-55-5-5-55-5---------|
D----------------------------------------------|
                      X3
G-----------------------|
D-----------------------|
A----5-51-1--33-333-----|
D------------3----------|

G--------------|
D--------------|
A----5-51--3---|
D----------3---|

                      X2
G-----------------------|
D-----------------------|
A----5-51-1-33-333------|
D----------3------------|

G--------------------|
D--------------------|
A---11-11—33-33------|
D--------------------|

G------------------------------------|
D------------------------------------|
A---5-53--5-535---11-13-1-131--------|
D------------------------------------|

G--------------------|
D--------------------|
A---11-11—33-33------|
D--------------------|
                                                      X2
G--------------------------------------------------------|
D--------------------------------------------------------|
A-5-55-5-55--1-11-1-11--0-00-0-00--3-33-3-33-------------|
D--------------------------------------------------------|
                              X4
G--------------------------------|
D--------------------------------|
A--------------------------------|
D-0-0000--00-0-0-0000--00--------|

G--------------------------------|
D--------------------------------|
A--------------------------------|
D-0-0000---/0-0000---------------|

G------------------------------------------------------------------------------|
D------------------------------------------------------------------------------|
A-5555-55-5555--1111-11-1111—0000-00-0000—3333-33-3333-------------------------|
D------------------------------------------------------------------------------|

G--------------------|
D--------------------|
A---11-11—33-33------|
D--------------------|

                                                                                         
                                                                 X4
G--------------------------------------------------------------------|
D--------------------------------------------------------------------|
A-5555555555555555-1111111111111111-0000000000000000-333333333333333-|
D--------------------------------------------------------------------|

G--------------------|
D--------------------|
A---11-11—33-33------|
D--------------------|
Suggest correction
Creating personal tab
Creating personal tab
You can edit any tab online and save it as your Personal.

You can edit, replace or remove any tab part or add personal notes – all changes will be seen only by you.

Personal tabs can be accessed anytime from any device, even offline.
Learn more »
Give kudos to tab author, rate the tab!
1 2 3 4 5
comments
print report bad tab
2 comments total.
0 reply
MetalBassist93 345 Jan 19, 2007 08:00 AM

Nice job on the tab. *4 stars* :)
(one thing, even though its little, the very last measure is
A|11-11-33|)

0 reply
sporty4911 10 Dec 28, 2007 09:38 PM

Umm you said standard tuning in description then in the tabbing it's in drop D...


Drop D is not standard tuning.
Please fix to correct tuning

guest
You may want to rate the tab now too:
select rating
Wanna post a correction for this tab? Suggest correction