Oops, an error
Loading. Please wait.

Teeth The Size Of Piano Keys tab

version 1
version 1

Whole song

Interactive

by Chiodos
3,629 views 1 this week
4 commentsread comments
1 2 3 4 5
x 3
add to favorites
×
Save as Personal and add changes to this tab that will be seen only by you. Learn more ›
×
You can save this tab as Personal to edit and correct it or add notes. All changes will be seen only by you. Learn more »
launch autoscroll
font size
0
reset
how to read this tab
guitar tuner
edit
Autoscroll
slow
fast
+/-
esc
set tempo
stop
E]-----------------------------------------------------------------|
B]-----------------------------------------------------------------|
G]---14-9-10-14--14-9-10-14--14-9-10-14-----14-9-10-14--14-9-10-14-|
D]--0-----------0-----------0-----------3-0------------0-----------|
A]--0-----------0-----------0-----------3-0------------0-----------|
D]--0-----------0-----------0-----------3-0------------0-----------|

E]----------|
B]6-6-6-6-6-|
G]9-9-9-9-9-|
D]----------|
A]----------|
D]----------|

E]--------------------------------------------------------|
B]--------------------------6-6---------------------------|
G]---14-9-10-14--14-9-10-14-9-9----14-9-10-14--14-9-10-14-|
D]--0-----------0---------------3-0-----------0-----------|
A]--0-----------0---------------3-0-----------0-----------|
D]--0-----------0---------------3-0-----------0-----------|

E]------------|
B]6-6-6-6-6-6-|
G]9-9-9-9-9-9-|
D]------------|
A]------------|
D]------------|

E]---------------------|
B]-----------------6~--|
G]-----------------9~--|
D]0-0-0-0-0-0-0-0-0----|
A]0-0-0-0-0-0-0-0-0----|
D]0-0-0-0-0-0-0-0-0----|

E]----------------------------------------|
B]----------------------------------------|
G]--14-9-10-14--14-9-10-14--14-9-10-14----|
D]-0-----------0-----------0----------3-0-|
A]-0-----------0-----------0----------3-0-|
D]-0-----------0-----------0----------3-0-|

E]-------------------------------------|
B]-------------------------6-6-6-6-6-6-|
G]--14-9-10-14--14-9-10-14-9-9-9-9-9-9-|
D]-0-----------0-----------------------|
A]-0-----------0-----------------------|
D]-0-----------0-----------------------|

E]-----------------------------------------------------|
B]-----------------------------------------------------|
G]-777-7-777-7-777-7-7---------------------------------|
D]-777-7-777-7-777-7-7----------33-3-333-3-3-222-222-2-|
A]-555-5-555-5-555-5-5-5h7h8p7--33-3-333-3-3-222-222-2-|
D]------------------------------33-3-333-3-3-222-222-2-|

E]-----------------------------------------------------------------------------|
B]-----------------------------------------------------------------------------|
G]-777-7-77-----777-7-7--------------------------------------------------------|
D]-777-7-77-000-777-7-7---------00---------00---------00---------00------------|
A]-555-5-55-000-555-5-5-5h7h8p7-00-5h8p5p0-00-5h8p5p0-00-4h7p4p0-00-4h7p4p0----|
D]----------000-----------------00---------00---------00---------00------------|
            xxx                 xx         xx         xx         xx

E]-------------------------------------7-9-11-9-7-------------8-10-12-10-8------|
B]-----------------------------------10-----------10--------10------------10----|
G]-777-7-77-----777-7-7-------------9---------------9------9----------------9---|
D]-777-7-77-000-777-7-7-----------10-----------------10--10------------------10-|
A]-555-5-55-000-555-5-5-5h7h8p7-12---------------------12-----------------------|
D]----------000-----------------------------------------------------------------|
            xxx                 x x x                   x x x

E]-----------------------------------------------------------------------------|
B]-----------------------------------------------------------------------------|
G]-777-7-77-----777-7-7--------------------------------------------------------|
D]-777-7-77-000-777-7-7---------00---------00---------00---------00------------|
A]-555-5-55-000-555-5-5-5h7h8p7-00-5h8p5p0-00-5h8p5p0-00-4h7p4p0-00-4h7p4p0----|
D]----------000-----------------00---------00---------00---------00------------|
            xxx                 xx         xx         xx         xx


E]---------------------------------------------------------------------|
B]-22-20-18-17------20-18-17--------18-17------------------17-18-20----|
G]------------19-17---------19-17-15-----19-17-15--15-17-19------------|
D]-----------------------------------------------19--------------------|   2x
A]---------------------------------------------------------------------|
D]---------------------------------------------------------------------|
^play each note three times

E]-----------------18-----20-18--22-20-18-20-18--18--------------------------]
B]-22-20-18-17-------22-20-----22--------------22--22-20-22-20-18-22-20-18-20]
G]------------19-17----------------------------------------------------------]
D]---------------------------------------------------------------------------]
A]---------------------------------------------------------------------------]
D]---------------------------------------------------------------------------]

E]-------------------------|
B]-18-17-18-17-18-20-22-20-|
G]-------------------------|
D]-------------------------|
A]-------------------------|
D]-------------------------|

E]----------------------------------|
B]-22-20-18-17-----20-18-17---------|
G]------------19-17--------19-17-15-|
D]----------------------------------|
A]----------------------------------|
D]----------------------------------|

[1:18-1:36]

E]---------20-22-20-18----------------------------------------------|
B]-18-20-22------------22~--20~--18~--17~--20~--18-17-18~--17~------|
G]--------------------------------------------------------------17~-|
D]------------------------------------------------------------------|
A]------------------------------------------------------------------|
D]------------------------------------------------------------------|

E]-----------------------------------------------------|
B]-----------------------------------------------------|
G]-777-7-777-7-777-7-7---------------------------------|
D]-777-7-777-7-777-7-7----------33-3-333-3-3-222-222-2-|
A]-555-5-555-5-555-5-5-5h7h8p7--33-3-333-3-3-222-222-2-|
D]------------------------------33-3-333-3-3-222-222-2-|

E]--------------------------------------------------------------------------|
B]--------------------------------------------------------------------------|
G]-777-7-77-----777-7-7-----------------------------------------------------|
D]-777-7-77-000-777-7-7---------00---------00---------00---------00---------|
A]-555-5-55-000-555-5-5-5h7h8p7-00-5h8p5p0-00-5h8p5p0-00-4h7p4p0-00-4h7p4p0-|
D]----------000-----------------00---------00---------00---------00---------|
            xxx                 xx         xx         xx         xx

E]-------------------------------------7-9-11-9-7-------------8-10-12-10-8------|
B]-----------------------------------10-----------10--------10------------10----|
G]-777-7-77-----777-7-7-------------9---------------9------9----------------9---|
D]-777-7-77-000-777-7-7-----------10-----------------10--10------------------10-|
A]-555-5-55-000-555-5-5-5h7h8p7-12---------------------12-----------------------|
D]----------000-----------------------------------------------------------------|
            xxx                 x x x                   x x x

E]--------------------------------------------------------------------------|
B]--------------------------------------------------------------------------|
G]-777-7-77-----777-7-7-----------------------------------------------------|
D]-777-7-77-000-777-7-7---------00---------00---------00---------00---------|
A]-555-5-55-000-555-5-5-5h7h8p7-00-5h8p5p0-00-5h8p5p0-00-4h7p4p0-00-4h7p4p0-|
D]----------000-----------------00---------00---------00---------00---------|
            xxx                 xx         xx         xx         xX


E]-------------------------------------------------------------|
B]-------------------------------------------------------------|
G]----14-14-14-14----12-12-12-12----15-15-15-15----14-14-14-14-|
D]-00-------------00-------------00-------------00-------------|
A]-00-12-12-12-12-00-10-10-10-10-00-13-13-13-13-00-12-12-12-12-|
D]-00-------------00-------------00-------------00-------------|
   xx             xx             xx             xx


E]---------------------------------------------------------|
B]---------------------------------------------------------|
G]----14-14-14-14----9-9-9-9----12-12-12-12----11-11-11-11-|
D]-00-------------00---------00-------------00-------------|
A]-00-12-12-12-12-00-7-7-7-7-00-10-10-10-10-00-8--8--8--8--|
D]-00-------------00---------00-------------00-------------|
   xx             xx         xx             xx

E]---------------------------------|
G]---444444444444-----444--444-----|
B]---777777777777-----777--777-----|
D]-0--------------0-0-----0----000-|
A]-0--------------0-0-----0----000-|
D]-0--------------0-0-----0----000-|

E]----------------------------------------|
B]----------------------------------------|
G]---14-9-10-14--14-9-10-14--14-9-10-14---|
D]--0-----------0-----------0-----------3-|
A]--0-----------0-----------0-----------3-|
D]--0-----------0-----------0-----------3-|

E]-------------------------------------------|
B]-------------------------------------------|
G]--14-9-10-14--14-9-10-14--14-9-10-14-------|
D]-0-----------0-----------0-----------3-3-0-|
A]-0-----------0-----------0-----------3-3-0-|
D]-0-----------0-----------0-----------3-3-0-|

            
            
Suggest correction
Creating personal tab
Creating personal tab
You can edit any tab online and save it as your Personal.

You can edit, replace or remove any tab part or add personal notes – all changes will be seen only by you.

Personal tabs can be accessed anytime from any device, even offline.
Learn more »
Give kudos to tab author, rate the tab!
1 2 3 4 5
comments
print report bad tab
4 comments total. Showing first comments.
0 reply
bloodyskull 31 Jun 27, 2007 09:21 PM

hey! it looks pretty good, i dont have my guitar right now so i cant see how well it is, but i listened along with the song and all the parts are there.

0 reply
CrashedTheShow3 197 Jul 04, 2007 01:28 PM

Good, only in the intro, guitar two plays 8x10 on the A and G strings while the guitar one plays the little riff.

0 reply
LPplayer 61 Jul 23, 2007 04:06 PM

Pretty good tab, but i think instead of playing the intro 14-9-10-14 on G you can make it an easier reach, by playing 10-on the B instead of playing 14 on G.
Also i think your Arpeggios are a little off.
Try playing
I- - - - - - -8-12p8 - - - - - - - - - - - -10 13p10 - - - - - - - -I
I- - - - - 10- - - - 10- - - - - - - - - -11 - - - -11 - - - - - - -I
I- - - - 9 - - - - - - - 9 - - - - - - -10 - - - - - -10 - - - - - -I
I- - -10 - - - - - - - - - 10- - - - -12 - - - - - - - -12 - - - - -I
I- 12- - - - - - - - - - - - -12 - 13- - - - - - - - - - -13 - - - -I
I- - - - - - - - - - - - - - - - - - - - - - - - - - - - - - - - - -I


I don't know maybe i'm way off, watever, good tab.

guest
Wanna post a correction for this tab? Suggest correction