Oops, an error
Loading. Please wait.

The Words Best Friend Become Redefined Tab

version 1
version 1

Intro

Interactive

22,908 views 12 this week
4 commentsread comments
1 2 3 4 5
accurate
x 10
add to favorites
launch autoscroll
font size
0
reset
how to read this tab
guitar tuner
Tab Pro tools
  • play this tab
  • loop segment
  • change instrument
  • show fretboard
  • metronome
×
Best way to learn
"The Words Best Friend Become Redefined"
Autoscroll
slow
fast
+/-
esc
set tempo
stop
Contributor
Tuning
D A D G B E
Song: The Words "Best Friend" Become Redefined
Artist: Chiodos
Album: All's Well That Ends Well

This is my first time tabing a song on ultimate-guitar but it seems correct when
i play it so i thought i would post it. it is only the intro cuz its all i had
time for.

(Wed., April 12,2006)- I made a change to the guitar 1 in the intro. i messed
up a little part and you just play the whole thing twice.


Guitar 1:
E|------------------------------------------------------------------------------|
B|o-----------------------------------------------------------------------------|
G|------------------------------------------------------------------------------|
D|------------------------------------------------------------------------------|
A|o----------------12p0-10p0-10p0-8p0-8p0-7p0-7p0-7p0-8p0-7p0-4h7p4h7p4h7p4h7---|
D|-12p0-12p0-12p0---------------------------------------------------------------|

E|---------------------------------------------------------------------------------|
B|---------------------------------------------------------------------------------|
G|---------------------------------------------------------------------------------|
D|---------------------------------------------------------------------------------|
A|----------------12p0-10p0-10p0-8p0-8p0-10p0-10p0-10p0-12p0-13p0-13p0-12p0-12p0---|
D|-12p0-12p0-12p0------------------------------------------------------------------|

E|-------------------------------------------------------------------------------|
B|-------------------------------------------------------------------------------|
G|-------------------------------------------------------------------------------|
D|-------------------------------------------------------------------------------|
A|----------------12p0-10p0-10p0-8p0-8p0-7p0-7p0-7p0-8p0-7p0-4h7p4h7p4h7p4h7h4---|
D|-12p0-12p0-12p0----------------------------------------------------------------|

E|------------------------------------------------------------------------------------------------|
B|-----------------------------------------------------------------------------------------------o|
G|------------------------------------------------------------------------------------------------|
D|------------------------------------------------------------------------------------------------|
A|----------------12p0-10p0-10p0-8p0-8p0-10p0-10p0-10p0-12p0-13p0-13p0---------------------------o|
D|-12p0-12p0-12p0------------------------------------------------------10h13p10h13p10h13p10h13----|


Guitar 2:

Nothing first 2 times guitar one plays.

then on the third time... small pickslide then start.
E|-----------------------------------------------------------------------------|
B|o----------------------------------------------------------------------------|
G|--7-7-7-7-7-7-7-7-7-7-7-7-7-7-7-7/-10-10-10-10-10-10-10-10\-9-9-9-9----------|
D|--x-x-x-x-x-x-x-x-x-x-x-x-x-x-x-x---x--x--x--x--x--x--x--x--x-x-x-x--(rest)--|
A|o-5-5-5-5-5-5-5-5-5-5-5-5-5-5-5-5/--8--8--8--8--8--8--8--8\-7-7-7-7----------|
D|-----------------------------------------------------------------------------|

E|-----------------------------------------------------------------------------|
B|----------------------------------------------------------------------------o|X2
G|-6-6-6-6-6-6-6-6-6-6-6-6-6-6-6-6/-10-10-10-10-10-10-10-10\-9-9-9-9-9-9-9-9---|
D|-x-x-x-x-x-x-x-x-x-x-x-x-x-x-x-x---x--x--x--x--x--x--x--x--x-x-x-x-x-x-x-x---|
A|-4-4-4-4-4-4-4-4-4-4-4-4-4-4-4-4/--8--8--8--8--8--8--8--8\-7-7-7-7-7-7-7-7--o|
D|-----------------------------------------------------------------------------|

well, i hope u enjoy the tab and chiodos rocks!!!





comments
print report bad tab
4 comments total. Showing first comments.
-1 reply
guruguitarist wrote on March 12 2006, 06:34 pm

dude no
there not pull offs. the notes are right, but there played on the 5th, 7th, 3rd, and 8th frets
and you have to pick them

+1 reply
WOLFMAN JOE wrote on December 23 2006, 11:04 pm

and there are palm mute between them

+1 reply
trev32 wrote on March 5 2007, 11:33 pm

Yeah it dosent go 12p0... its just 12. but all the notes are right. good job.

I want to post or [tab]
guest
You may want to rate the tab now too:
select rating
Please do not post tabs as comments. Select "correction" instead!