Oops, an error
Loading. Please wait.

The Words Best Friend Become Redefined bass

version 2
version 2

Whole song

Interactive

by Chiodos
2,818 views 1 this week
1 commentread comment
1 2 3 4 5
x 3
add to favorites
×
Save as Personal and add changes to this tab that will be seen only by you. Learn more ›
×
You can save this tab as Personal to edit and correct it or add notes. All changes will be seen only by you. Learn more »
launch autoscroll
font size
0
reset
guitar tuner
edit
Autoscroll
slow
fast
+/-
esc
set tempo
stop
Author
------------------------------------------------------------------------------------
              THE WORDS BEST FRIEND BECOME REDEFINED - Chiodos
------------------------------------------------------------------------------------

Tabbed By : Mike_Biro727
e-mail: gatorboy727@yahoo.com

So I've noticed every other tab for this is wrong, so here's my go at it.

Tuning:Drop D

Intro-0:18
 This intro is correct, everyone thinks it's more complicated, but it's not. Just follow 
drums.
G|---------------------------------------------------------------|
D|---------------------------------------------------------------|
A|---------------------------------------------------------------|
D|-000000000-0--0-000000000-0-0~-000000000-0--0-000000000-0-0-0--|

G|-------------------------------------------------------------------|
D|-------------------------------------------------------------------|
A|-------------------------------------------------------------------|
D|-000000000-0--0-000000000-0-0~-000000000-0--0-000000000-0-0-0-0~---|

"To a chair..."-1:10
G|-----7-10-9-7-6-7-----7-10-9-7-6-7----------10-9-7-6-7-----------10-9-7-6-7-|
D|-0-7--------------0-7--------------------10-------------------10------------|
A|--------------------------------------10-------------------10---------------|
D|-----------------------------------10-------------------10------------------|

G|-------10-9-7-6-7-------10-9-7-6-7----------------------7-9-10-9-7-9-|
D|-----8----------------8------------------------5-7-8-10--------------|
A|---8----------------8---------------------5-7-8----------------------|
D|-8----------------8----------------7-8-10----------------------------|

G|-----7-10-9-7-6-7-----7-10-9-7-6-7----------10-9-7-6-7-----------10-9-7-6-7-|
D|-0-7--------------0-7--------------------10-------------------10------------|
A|--------------------------------------10-------------------10---------------|
D|-----------------------------------10-------------------10------------------|

G|-------10-9-7-6-7-------10-9-7-6-7--------------------------------------|
D|-----8----------------8-----------------------5-7-8--Float like angels!-|
A|---8----------------8-------------------5-7-8---------------------------|
D|-8----------------8----------------8-10---------------------------------|

1:47
G|-------------------------------------------------------------|
D|-------------------------------------------------------------|
A|-------------------------------------------------------7-5-3-|
D|-0~---0-0~---0-3~---3/77-77-5-3-0~---0-0~---3~---5-5-5-------|

G|-------------------------------------------------------------------------|
D|-------------------------------------------------------------------------|
A|--------------------------------------------------------------------8*-7*|
D|-0~---0-0~---0-3~---3/77-77-5-3-0~---0-0~---3-3-3-3-3-3-3-3-7-7-7-7------|

Breakdown-2:22
G|-------------------------------------------------------|
D|-------------------------------------------------------|
A|-------------------------------------------------------|
D|-0-0~--00-00---0-0~--00-00---0-0~--00-00---00~--00-00--|

Technoish Part-2:32
G|-------------------------|
D|-------------------------|
A|-------------------------|
D|-0-0--00-00---0-0--00-00-|

"DONE!!!!"-2:37
G|----------------------------------------------------------------------------|
D|----------------------------------------------------------------------------|
A|----------------------------------------------------------------------------|
D|-0-0--00-00---0-0--00-00---0-0--00-00---0-0--00-00---0-0--00-00---0-0--00~--|

"To hide from our twisted ways"-2:51
G|-----------------------------------------------------|
D|-----------------------------------------------------|
A|-----------------------------------------------------|
D|-0-0--00-00---0-0--00-00---0-0--00-00---0-0--00-00---|

G|-----------------------------------------------------|
D|-----------------------------------------------------|
A|-----------------------------------------------------|
D|-0-0--00-00---0-0--00-00---0-0--00-00---0-0--00-00---|

So that's it! Easy song, but very fun to play. Any corrections would be appreciated. 
and God bless!

| *  vibrato
| /  slide up
| \  slide down
| h  hammer-on
| p  pull-off
| ~  hold note
| +  harmonic
| x  Mute note
===============================================================================

            
            
Suggest correction
Creating personal tab
Creating personal tab
You can edit any tab online and save it as your Personal.

You can edit, replace or remove any tab part or add personal notes – all changes will be seen only by you.

Personal tabs can be accessed anytime from any device, even offline.
Learn more »
Give kudos to tab author, rate the tab!
1 2 3 4 5
comments
print report bad tab
1 comment total.
0 reply
Pandasrule4ever 52 Apr 09, 2012 07:53 PM

hey this was pretty accurate but this part
"To a chair..."-1:10
G|-----7-10-9-7-6-7-----7-10-9-7-6-7----------10-9-7-6-7-----------10-9-7-6-7-|
D|-0-7--------------0-7--------------------10-------------------10------------|
A|--------------------------------------10-------------------10---------------|
D|-----------------------------------10-------------------10------------------|

G|-------10-9-7-6-7-------10-9-7-6-7----------------------7-9-10-9-7-9-|
D|-----8----------------8------------------------5-7-8-10--------------|
A|---8----------------8---------------------5-7-8----------------------|
D|-8----------------8----------------7-8-10----------------------------|

G|-----7-10-9-7-6-7-----7-10-9-7-6-7----------10-9-7-6-7-----------10-9-7-6-7-|
D|-0-7--------------0-7--------------------10-------------------10------------|
A|--------------------------------------10-------------------10---------------|
D|-----------------------------------10-------------------10------------------|

G|-------10-9-7-6-7-------10-9-7-6-7--------------------------------------|
D|-----8----------------8-----------------------5-7-8--Float like angels!-|
A|---8----------------8-------------------5-7-8---------------------------|
D|-8----------------8----------------8-10---------------------------------|

is for the piano.. sounds a little off with a bass

guest
You may want to rate the tab now too:
select rating
Wanna post a correction for this tab? Suggest correction