Oops, an error
Loading. Please wait.

The Words Best Friend Become Redefined tab

version 4
version 4

Interactive

by Chiodos
5,250 views 6 this week
5 commentsread comments
1 2 3 4 5
x 6
add to favorites
×
Save as Personal and add changes to this tab that will be seen only by you. Learn more ›
×
You can save this tab as Personal to edit and correct it or add notes. All changes will be seen only by you. Learn more »
launch autoscroll
font size
0
reset
how to read this tab
guitar tuner
edit
Autoscroll
slow
fast
+/-
esc
set tempo
stop
Author
Difficulty
__________________________________________________

 The Words "Best Friend" Become Redefined- Chiodos
__________________________________________________
Alright guys this is my first tab ever, so go easy on me eh? I was told that i need to
playing by ear, by my Uncle/teacher so here we go.
First off i would like to say that Chiodos effing Rox. Jason Hale and Pat Mcmanaman are
shit. so yeah enjoy, any Feed Back you wanna give just message me at
to tell me what you think
I put as many measures as ur supposed to do, so how ever many i have on here is how many 
supposed to do.

P-Pull-off
H-Hammer-on
*-Harmonic
T-Tremolo
~-Vibrato(let ring)
x-muted string
.-Palm muted


Intro-0:00

Jason Hale-Gtr 1
|---------------------------------------------------------------------------|
|---------------------------------------------------------------------------|
|---------------------------------------------------------------------------|
|---------------------------------------------------------------------------|
|5p0-5p0-5p0-12p0-10p0-10p0-8p0-8p0-7p0-7p0-7p0-8p0-7p0-7p0-4h7p4-4h7-------|
|---------------------------------------------------------------------------|

|---------------------------------------------------------------------------|
|---------------------------------------------------------------------------|
|---------------------------------------------------------------------------|
|---------------------------------------------------------------------------|
|5p0-5p0-12p0-10p0-10p0-8p0-8p0-10p0-10p0-12p0-13p0-13p0-12p0-12p0----------|
|---------------------------------------------------------------------------|

|---------------------------------------------------------------------------|
|---------------------------------------------------------------------------|
|---------------------------------------------------------------------------|
|---------------------------------------------------------------------------|
|5p0-5p0-5p0-12p0-10p0-10p0-8p0-8p0-7p0-7p0-7p0-8p0-7p0-7p0-4h7p4-4h7-------|
|---------------------------------------------------------------------------|

|---------------------------------------------------------------------------|
|---------------------------------------------------------------------------|
|---------------------------------------------------------------------------|
|---------------------------------------------------------------------------|
|5p0-5p0-12p0-10p0-10p0-8p0-8p0-10p0-10p0-12p0-13p0-13p0-12p0-12p0----------|
|---------------------------------------------------------------------------|


Intro w/ 2nd Guitar-0:17

Jason Hale-Gtr 1
|---------------------------------------------------------------------------|
|---------------------------------------------------------------------------|
|---------------------------------------------------------------------------|
|---------------------------------------------------------------------------|
|5p0-5p0-5p0-12p0-10p0-10p0-8p0-8p0-7p0-7p0-7p0-8p0-7p0-7p0-4h7p4-4h7-------|
|---------------------------------------------------------------------------|

Pat McManaman-Gtr2
|------------------------------------------|
|------------------------------------------|
|-----7-7-7-7-7-7-7-7-10-10-10-10-9-9-9-9--|NOTE: when Gtr. 1 does the hammery
|-----x-x-x-x-x-x-x-x--x--x--x--x-x-x-x-x--|Thing, gtr. 2 Palm mutes all sound
|15/1-5-5-5-5-5-5-5-5--8--8--8--8-7-7-7-7--|
|15/1--------------------------------------|

J.H-Guitar 1
|---------------------------------------------------------------------------|
|---------------------------------------------------------------------------|
|---------------------------------------------------------------------------|
|---------------------------------------------------------------------------|
|5p0-5p0-12p0-10p0-10p0-8p0-8p0-10p0-10p0-12p0-13p0-13p0-12p0-12p0----------|
|---------------------------------------------------------------------------|

P.M-Guitar 2
|---------------------------------------------------------------------------|
|---------------------------------------------------------------------------|
|7-7-7-7-7-7-7-7-10-10-10-10-9-9-9-9----------------------------------------|
|x-x-x-x-x-x-x-x--x--x--x--x-x-x-x-x----------------------------------------|
|4-4-4-4-4-4-4-4--8--8--8--8-7-7-7-7----------------------------------------|
|---------------------------------------------------------------------------|

Jason Hale-Gtr 1
|---------------------------------------------------------------------------|
|---------------------------------------------------------------------------|
|---------------------------------------------------------------------------|
|---------------------------------------------------------------------------|
|5p0-5p0-5p0-12p0-10p0-10p0-8p0-8p0-7p0-7p0-7p0-8p0-7p0-7p0-4h7p4-4h7-------|
|---------------------------------------------------------------------------|

Pat McManaman-Gtr2
|------------------------------------------|
|------------------------------------------|
|-----7-7-7-7-7-7-7-7-10-10-10-10-9-9-9-9--|NOTE: when Gtr. 1 does the hammery
|-----x-x-x-x-x-x-x-x--x--x--x--x-x-x-x-x--|Thing, gtr. 2 Palm mutes all sound
|15/1-5-5-5-5-5-5-5-5--8--8--8--8-7-7-7-7--|
|15/1--------------------------------------|

J.H-Guitar 1
|---------------------------------------------------------------------------|
|---------------------------------------------------------------------------|
|---------------------------------------------------------------------------|
|---------------------------------------------------------------------------|
|5p0-5p0-12p0-10p0-10p0-8p0-8p0-10p0-10p0-12p0-13p0-13p0-12p0-12p0----------|
|---------------------------------------------------------------------------|

P.M-Guitar 2
|---------------------------------------------------------------------------|
|---------------------------------------------------------------------------|
|7-7-7-7-7-7-7-7-10-10-10-10-9-9-9-9----------------------------------------|
|x-x-x-x-x-x-x-x--x--x--x--x-x-x-x-x----------------------------------------|
|4-4-4-4-4-4-4-4--8--8--8--8-7-7-7-7----------------------------------------|
|---------------------------------------------------------------------------|

Then the Piano Interlude kicks in 0:35-1:46 I don't know how to do it but there's one
on here that has it transcibed and i didnt wanna steal his work so yeah........

Solo-1:47

J.H Gtr. 1
|---------------------------------------------------------------------------|
|-15~13-15~-17-13~-13~10~-8-10~-12~-14~-------------------------------------|
|---------------------------------------------------------------------------|
|---------------------------------------------------------------------------|
|---------------------------------------------------------------------------|
|---------------------------------------------------------------------------|

P.M Gtr 2

|---------------------------------------------------------------------------|
|---------------------------------------------------------------------------|
|---------------------------------------------------------------------------|
|--7~----7~-----5~--5~-3~----3~--5~--7~-------------------------------------|
|--5~----5~-----5~--5~-3~----3~--5~--5~-------------------------------------|
|---------------------------------------------------------------------------|

Fast Strumming-2:04

J.H Gtr 1
|---------------------------------------------------------------------------|
|-15-17-15-19-21------------------------------------------------------------|
|---------------------------------------------------------------------------|
|---------------------------------------------------------------------------|
|---------------------------------------------------------------------------|
|---------------------------------------------------------------------------|

P.M Gtr 2
|---------------------------------------------------------------------------|
|---------------------------------------------------------------------------|
|-----------9-9-9-9-9--9-9-9-9-9---7-7-7-7-7---7-7-7-7-7--------------------|
|--7~-9~-7~-x-x-x-x-x--x-x-x-x-x---x-x-x-x-x---x-x-x-x-x--------------------|
|--5~-7~-5~-7-7-7-7-7--7-7-7-7-7---5-5-5-5-5---5-5-5-5-5--------------------|
|---------------------------------------------------------------------------|

Breakdown Part-2:22
Both Guitars
|------------|
|------------|
|------------| x4
|------------|
|-00--00-00--|
|-00--00-00--|
  ..  .. ..

Techno Part-2:32


Breakdown Part-2:36

|------------|
|--10---10~--|
|---8----8~--| x4
|------------|
|00---00-----|
|00---00-----|
 ..   ..

Breakdown Part 2-2:46
|--------------------|
|---11--11~---11-----|
|----8---8~----8-----|
|--------------------|
|00---00---00---00---|
|00---00---00---00---|
 ..   ..   ..   ..

Breakdown Part 3-2:51
|-------------|
|-------------|
|-------------|
|-------------|
|00-00--00-00-|
|00-00--00-00-|
 .. ..  .. ..

Breakdown Part 3 Cont.- 3:01
This part is the piano but it still sounds cool on Guitar
|----------------------------------10--10--10--10--10--10--10--10-----------|
|-9---9---9---9---9---9---9---9------9---9---9---9---9---9---9---9----------|
|---7---7---7---7---7---7---7---7-------------------------------------------|
|---------------------------------------------------------------------------|
|---------------------------------------------------------------------------|
|---------------------------------------------------------------------------|
So after Brad(Keyboardist) plays this twice, Then Jay comes in with this

|-16---------|
|---15-------|
|------------| play that till the end of the song, now play this with your
|------------| Friends,Have fun. If you want Give me feed back at
|------------| http://www.myspace.com/ginsan : )
|------------|
Suggest correction
Creating personal tab
Creating personal tab
You can edit any tab online and save it as your Personal.

You can edit, replace or remove any tab part or add personal notes – all changes will be seen only by you.

Personal tabs can be accessed anytime from any device, even offline.
Learn more »
comments
print report bad tab
5 comments total. Showing first comments.
+1 reply
jo3myster 247 Jun 28, 2007 04:15 PM

Hey nice tab i just played along with song and it sounded perfect. Good job as specially for a first!

+1 reply
uncballer11 16 Jul 10, 2007 03:38 PM

very nice.

+1 reply
and1streeter 102 Nov 04, 2007 08:48 AM

i agree this is avery good tab...i'd say about 99% right!!
5* job

guest
You may want to rate the tab now too:
select rating
Wanna post a correction for this tab? Suggest correction