Oops, an error
Loading. Please wait.

The Words Best Friend Become Redefined tab

version 5
version 5

Interactive

by Chiodos
14,768 views 12 this week
13 commentsread comments
1 2 3 4 5
x 18
add to favorites
×
Save as Personal and add changes to this tab that will be seen only by you. Learn more ›
×
You can save this tab as Personal to edit and correct it or add notes. All changes will be seen only by you. Learn more »
launch autoscroll
font size
0
reset
how to read this tab
guitar tuner
edit
Autoscroll
slow
fast
+/-
esc
set tempo
stop
Author
Song: The Words “Best Friend” Become Redefined
Artist: Chiodos
Album:All’s Well That Ends Well
Tunning: “Drop D” (D-A-D-G-B-E)






intro
One Guitar
E|------------------------------------------------------------------------------|
B|------------------------------------------------------------------------------|
G|------------------------------------------------------------------------------|
D|-------7-5-5---------------------------------------7-5-5-----5-5-5-7-8-8-7-7--|
A|-5-5-5-------8-8-7-7-7-8-7-7-4h7p4h7p4h7p4h7-5-5-5-------8-8------------------|
D|--0-0-0-0-0-0-0-0-0-0-0-0-0-0-----------------0-0-0-0-0-0-0-0-0-0-0-0-0-0-0-0-|
pm  . . . . . . . . . . . . . .                 . . . . . . . . . . . . . . . .


Guitar I
|------------------------------------------------------------------------------------------|
|------------------------------------------------------------------------------------------|
|------------------------------------------------------------------------------------------|
|-------7-5-5---------------------------------------7-5-5-----5-5-5-7-8-8------------------|
|-5-5-5-------8-8-7-7-7-8-7-7-4h7p4h7p4h7p4h7-5-5-5-------8-8--------------0h3p0h3p0h3p0h3-|
|--0-0-0-0-0-0-0-0-0-0-0-0-0-0-----------------0-0-0-0-0-0-0-0-0-0-0-0-0-0-----------------|
|pm. . . . . . . . . . . . . .                 . . . . . . . . . . . . . .
|
|Guitar II
|------------------------------------------------------------------------------------------|
|------------------------------------------------------------------------------------------|
|------------------------------------------------------------------------------------------|
|------------------------------------------------------------------------------------------|
|--------------------------------------------------------------------------15\\------------|
|--------------------------------------------------------------------------15\\------------|



|------------------------------------------------------------------------------|
|------------------------------------------------------------------------------|
|------------------------------------------------------------------------------|
|-------7-5-5---------------------------------------7-5-5-----5-5-5-7-8-8-7-7--|
|-5-5-5-------8-8-7-7-7-8-7-7-4h7p4h7p4h7p4h7-5-5-5-------8-8------------------|
|--0-0-0-0-0-0-0-0-0-0-0-0-0-0-----------------0-0-0-0-0-0-0-0-0-0-0-0-0-0-0-0-|
|pm. . . . . . . . . . . . . .                 . . . . . . . . . . . . . . . .
|
|-----------------------------------------------------------------------------|
|-----------------------------------------------------------------------------|
|-7-7-7-7-7-7-10-10-10-10-9-9-9-9-------------6-6-6-6-6-6-10-10-10-10-9-9-9-9-|
|-x-x-x-x-x-x-x--x--x--x--x-x-x-x-------------x-x-x-x-x-x-x--x--x--x--x-x-x-x-|
|-5-5-5-5-5-5-8--8--8--8--7-7-7-7-------------4-4-4-4-4-4-8--8--8--8--7-7-7-7-|
|-----------------------------------------------------------------------------|



|------------------------------------------------------------------------------------------|
|------------------------------------------------------------------------------------------|
|------------------------------------------------------------------------------------------|
|-------7-5-5---------------------------------------7-5-5-----5-5-5-7-8-8------------------|
|-5-5-5-------8-8-7-7-7-8-7-7-4h7p4h7p4h7p4h7-5-5-5-------8-8--------------0h3p0h3p0h3p0h3-|
|--0-0-0-0-0-0-0-0-0-0-0-0-0-0-----------------0-0-0-0-0-0-0-0-0-0-0-0-0-0-----------------|
|pm. . . . . . . . . . . . . .                 . . . . . . . . . . . . . .
|
|------------------------------------------------------------------------------------------|
|------------------------------------------------------------------------------------------|
|-7-7-7-7-7-7-10-10-10-10-9-9-9-9-------------6-6-6-6-6-6-10-10-10-10-9-9-9-9--------------|
|-x-x-x-x-x-x-x--x--x--x--x-x-x-x-------------x-x-x-x-x-x-x--x--x--x--x-x-x-x--------------|
|-5-5-5-5-5-5-8--8--8--8--7-7-7-7-------------4-4-4-4-4-4-8--8--8--8--7-7-7-7--------------|
|------------------------------------------------------------------------------------------|


both guitars
|-------------------------------------------------------------------|
|-------------------------------------------------------------------|
|-------------------------------------------------------------------|
|-0---------------------(0)---------------------------(0)-----------|
|-0---------------------(0)---------------------------(0)-----------|
|-0---------------------(0)---------------------------(0)-----------|




-Piano Break-



Guitars enter at 1:10, very faint

Guitar I
|------------------------------------------------------------------|
|-15--15--15--15--15--15--15--15--17--17--17--17--17--17--17--17---|
|---14--14--14--14--14--14--14--14--14--14--14--14--14--14--14--14-|
|------------------------------------------------------------------|
|------------------------------------------------------------------|
|------------------------------------------------------------------|
|
|Guitar II
|---------------------------------15--15--15--15--15--15--15--15---|
|-18--18--18--18--18--18--18--18-----------------------------------|
|---14--14--14--14--14--14--14--14--14--14--14--14--14--14--14--14-|
|------------------------------------------------------------------|
|------------------------------------------------------------------|
|------------------------------------------------------------------|



|---------------------------------15--15--15--15-------------------|
|-18--18--18--18--18--18--18--18------------------17--17--17--17---|
|---14--14--14--14--14--14--14--14--14--14--14--14--14--14--14--14-|
|------------------------------------------------------------------|
|------------------------------------------------------------------|
|------------------------------------------------------------------|
|
|
|-17--17--17--17--17--17--17--17--18--18--18--18--15--15--15--15---|
|------------------------------------------------------------------|
|---14--14--14--14--14--14--14--14--14--14--14--14--14--14--14--14-|
|------------------------------------------------------------------|
|------------------------------------------------------------------|
|------------------------------------------------------------------|



|------------------------------------------------------------------|
|-15--15--15--15--15--15--15--15--17--17--17--17--17--17--17--17---|
|---14--14--14--14--14--14--14--14--14--14--14--14--14--14--14--14-|
|------------------------------------------------------------------|
|------------------------------------------------------------------|
|------------------------------------------------------------------|
|
|
|---------------------------------15--15--15--15--15--15--15--15---|
|-18--18--18--18--18--18--18--18-----------------------------------|
|---14--14--14--14--14--14--14--14--14--14--14--14--14--14--14--14-|
|------------------------------------------------------------------|
|------------------------------------------------------------------|
|------------------------------------------------------------------|



|---------------------------------15--15--15--15-------------|
|-18--18--18--18--18--18--18--18-----------------------------|
|---14--14--14--14--14--14--14--14--14--14--14--14-----------|
|------------------------------------------------------------|
|------------------------------------------------------------|
|------------------------------------------------------------|
|
|
|-17--17--17--17--17--17--17--17--18--18--18--18-------------|
|------------------------------------------------------------|
|---14--14--14--14--14--14--14--14--14--14--14--14-----------|
|------------------------------------------------------------|
|------------------------------------------------------------|
|------------------------------------------------------------|


Guitar I
|-------------------------------------------------------|
|-------------------------------------------------------|
|-7------------7------------10------------9-------------|
|-7------------7------------10------------10------------|
|-5------------5------------8-------------7-------------|
|-------------------------------------------------------|
|
|Guitar II
|-----------------12------------------------------------|
|-15~---13-15~---------13~------13----------------------|
|-------------------------------17~---------------------|
|-------------------------------------------------------|
|-------------------------------------------------------|
|-------------------------------------------------------|




|-------------------------------------------------------|
|-------------------------------------------------------|
|-7------------7------------10------------9-------------|
|-7------------7------------10------------10------------|
|-5------------5------------8-------------7-------------|
|-------------------------------------------------------|
|
|
|-------------------------------------------------------|
|------------------------11--------(11)---------13~-----|
|-14~----12-14~----------15--------(15)b15.5------------|
|-------------------------------------------------------|
|-------------------------------------------------------|
|-------------------------------------------------------|



|-------------------------------------------------------|
|-------------------------------------------------------|
|-------------------------------------------------------|
|-0------------0------------3---------------------------|
|-0------------0------------3-------------3-------------|
|-0------------0------------3-------------2-------------|
|
|trem pick
|-------------------------------------------------------|
|-15-----------15-----------17-------------17-----15----|
|-------------------------------------------------------|
|-------------------------------------------------------|
|-------------------------------------------------------|
|-------------------------------------------------------|



|-------------------------------------------------------|
|-------------------------------------------------------|
|---------------------------10--------------------------|
|-0------------0------------10------------7-------------|
|-0------------0------------8-------------7-------------|
|-0------------0--------------------------7-------------|
|
|
|-13-----------------------15-------------17-----------|
|-15-----------------------17-------------18-----------|
|------------------------------------------------------|
|------------------------------------------------------|
|------------------------------------------------------|
|------------------------------------------------------|


both guitars
|------------------------------------------------|
|------------------------------------------------|
|------------------------------------------------|
|------------------------------------------------|(x2)
|-0-0----0-0--0-0--------0-0----0-0--0-0---------|
|-0-0----0-0--0-0--------0-0----0-0--0-0---------|
pm. .    . .  . .        . .    . .  . .


“if your stomach feels weak, then my work here is...”



|-------------------------------------------------------|
|------10------------10-----------10------------10------|
|------13------------13-----------13------------13------|
|------12------------12-----------12------------12------|(x2)
|-0-0------0-0--0-0----------0-0------0-0--0-0----------|
|-0-0------0-0--0-0----------0-0------0-0--0-0----------|
pm. .      . .  . .          . .      . .  . .

Guitar I
|----------------------------------------------|
|------10------------10-----------10-----------|
|------13------------13-----------13-----------|
|------12------------12-----------12-----------|
|-0-0------0-0--0-0----------0-0------0-0------|
|-0-0------0-0--0-0----------0-0------0-0------|
|pm .      . .  . .          . .      . .
|
|Guitar II
|----------------------------------------------|
|------<4>-------------------------------------|
|------<4>------------<4>-----------<4>--------|
|------<4>------------<4>-----------<4>--------|
|-0-0-------0-0--0-0--<4>------0-0--<4>--0-0---|
|-0-0-------0-0--0-0--<4>------0-0--<4>--0-0---|
pm. .       . .  . .           . .       . .



Both guitars
|---------------------------------------------------|
|---------------------------------------------------|
|---------------------------------------------------|
|---------------------------------------------------|(x2)
|-0-0------0-0--0-0---------0-0-----0-0--0-0--------|
|-0-0------0-0--0-0---------0-0-----0-0--0-0--------|
pm. .      . .  . .         . .     . .  . .



Guitar I
|---------------------------------------------------|
|---------------------------------------------------|
|---------------------------------------------------|
|---------------------------------------------------|
|-0-0------0-0--0-0---------0-0-----0-0--0-0--------|
|-0-0------0-0--0-0---------0-0-----0-0--0-0--------|
|pm..      . .  . .         . .     . .  . .
|
|Guitar II (faint)
|-------------9--------------------------------9--------------------|
|-----9---9-------9---9---10---9-------9---9-------9---9---10---9---|
|-6/7---7---7---7---7---7----7---7-6/7---7---7---7---7---7----7---7-|
|-------------------------------------------------------------------|
|-------------------------------------------------------------------|
|-------------------------------------------------------------------|



|---------------------------------------------------|
|---------------------------------------------------|
|---------------------------------------------------|
|---------------------------------------------------|
|-0-0------0-0--0-0---------0-0-----0-0--0-0--------|
|-0-0------0-0--0-0---------0-0-----0-0--0-0--------|
|pm .      . .  . .         . .     . .  . .
|
|-16--16--16--16--16--16--16--16--16--16--16--16----|
|---15--15--15--15--15--15--15--15--15--15--15--15--|
|---------------------------------------------------|
|---------------------------------------------------|
|---------------------------------------------------|
|---------------------------------------------------|



|-16--16--16--16--16--16--16--16--16--16--16--16----|
|---15--15--15--15--15--15--15--15--15--15--15--15--|
|---------------------------------------------------|Repeat until fade-out
|---------------------------------------------------|
|---------------------------------------------------|
|---------------------------------------------------|

            
            
Suggest correction
Creating personal tab
Creating personal tab
You can edit any tab online and save it as your Personal.

You can edit, replace or remove any tab part or add personal notes – all changes will be seen only by you.

Personal tabs can be accessed anytime from any device, even offline.
Learn more »
comments
print report bad tab
13 comments total. Showing first comments.
0 reply
jo3myster 247 Aug 03, 2007 09:16 AM

Honestly I like the other version more but this one sounded good still so I gave ya 5 stars

+1 reply
tylerpoole 125 Aug 19, 2007 11:26 AM

finally!!!!!!!

i hate seeing those gay tabs for this song, right on man. i watched jason play it when i saw live and i figured it out on my own like last summer but this is the first accurate tab.

-1 reply
A7XROX123 10 Sep 30, 2007 08:44 AM

ya its good but i hate 2 tell u that the intro isnt absolutely perfect like u think.the 1 st guitars good but after the 1st guitar does the intro riff twice the 2nd guitar comes in with somethin a little bit different,he does some tremble pickin shit instead.thats the only thing i have against it though,good job :]

guest
You may want to rate the tab now too:
select rating
Wanna post a correction for this tab? Suggest correction