Oops, an error
Loading. Please wait.

Theres No Penguins In Alaska tab

version 2
version 2

Whole song

Interactive

by Chiodos
38,581 views 3 this week
16 commentsread comments
1 2 3 4 5
x 20
add to favorites
×
Save as Personal and add changes to this tab that will be seen only by you. Learn more ›
×
You can save this tab as Personal to edit and correct it or add notes. All changes will be seen only by you. Learn more »
launch autoscroll
font size
0
reset
how to read this tab
guitar tuner
edit
Autoscroll
slow
fast
+/-
esc
set tempo
stop
                        There's No Penguins In Alaska                           

                                                                       

 Chiodos

This is just a text version of my Guitar Pro tab.







|||||||||||||||||||||||||||||||||||||||||||||||
|||||||||||||||||||Guitar 1||||||||||||||||||||
|||||||||||||||||||||||||||||||||||||||||||||||



     Rest    Rest     S  S  S S  S  S  S S  S  S  S S  S   E   S  
E||-------|-------|----------------------------------------------|
B||-------|-------|----------------------------------------------|
G||-------|-------|--10-10-10---10-10-10---10-10-10---10S-12--14-|
D||-------|-------|---x--x--x----x--x--x----x--x--x----xS--x---x-|
A||-------|-------|---8--8--8----8--8--8----8--8--8----8S-10--12-|
D||-------|-------|----------------------------------------------|


  S  S  E   S  S S  S S  S  E   S  S  S  S  
-------------------------------------------|
-------------------------------------------|
--L-14-14--14-15-L-12-L-12-12---L-12-14--L-|
--L--x--x---x--x----x----x--x---L--x--x--L-|
--L-12-12--12-13-L-10-L-10-10---L-10-12--L-|
-------------------------------------------|


   S  S  S S S S S S  S  S  S S S  S S S    S S S S S S S  S S S S S S S S S  
-----------------------------------------|-----------------------------------|
-----------------------------------------|-----------------------------------|
--10-10-10---9-9-9---12-12-12---9-10---7-|--7-7-7-7-7-7-7S-9-9-9-9-9-9-9-9---|
---x--x--x---x-x-x----x--x--x---x--x---x-|--x-x-x-x-x-x-x--x-x-x-x-x-x-x-x---|
---8--8--8---7-7-7---10-10-10---7--8---5-|--5-5-5-5-5-5-5S-7-7-7-7-7-7-7-7---|
-----------------------------------------|-----------------------------------|


   S  S  S S  S  S  S S  S  S  S S  S   E   S  
----------------------------------------------|
----------------------------------------------|
--10-10-10---10-10-10---10-10-10---10S-12--14-|
---x--x--x----x--x--x----x--x--x----xS--x---x-|
---8--8--8----8--8--8----8--8--8----8S-10--12-|
----------------------------------------------|


  S  S  E   S  S S  S S  S  E   S  S  S  S  
-------------------------------------------|
-------------------------------------------|
--L-14-14--14-15-L-12-L-12-12---L-12-14--L-|
--L--x--x---x--x----x----x--x---L--x--x--L-|
--L-12-12--12-13-L-10-L-10-10---L-10-12--L-|
-------------------------------------------|


   S  S  S S S S S S  S  S  S S S  S S S  
-----------------------------------------|
-----------------------------------------|
--10-10-10---9-9-9---12-12-12---9-10-----|
---x--x--x---x-x-x----x--x--x---x--x-----|
---8--8--8---7-7-7---10-10-10---7--8-----|
-----------------------------------------|


   PM PM PM PM PM PM PM PM PM PM PM PM PM PM PM PM 
   S  S  S  S  S  S  S  S  S  S  S  S  S  S  S  S  
--------------------------------------------------|
--------------17-17-------------------17-17-------|
--------17-17-------17-17-------17-17-------17-17-|
--15-15-------------------15-15-------------------|
--------------------------------------------------|
--------------------------------------------------|


  PM PM                                    
  S  S   E   S  E   E   S  E   S  S  S  S  
------------------------------------------|
------------------------------------------|
--------10--10-14--12--12-12--12-12-12-10-|
---------x---x--x---x---x--x---x--x--x--x-|
--0--0---8---8-12--10--10-10--10-10-10--8-|
--0--0------------------------------------|


   S  S  E   S  S  S E  S E   S  S S S  
---------------------------------------|
---------------------------------------|
---L-10-10--10-10-10-9--9-9--10-10-5-5-|
---L--x--x---x--x--x-x--x-x---x--x-x-x-|
---L--8--8---8--8--8-7--7-7---8--8-3-3-|
---------------------------------------|


  PM PM                                    
  S  S   E   S  E   E   S  E   S  S  S  S  
------------------------------------------|
------------------------------------------|
--------10--10-14--12--12-12--12-12-12-10-|
---------x---x--x---x---x--x---x--x--x--x-|
--0--0---8---8-12--10--10-10--10-10-10--8-|
--0--0------------------------------------|


      PM PM PM PM PM                   
  S S S  S  S  S  S  S E  S S S S S S  
--------------------------------------|
--------------------------------------|
---------------------2-2--5-5-5-5-5-5-| <--- Something along those lines.
--3-3----------------2-2--5-5-5-5-5-5-|      Jason usually improvises with 
--3-3-3--3--3--3--3--0-0--3-3-3-3-3-3-|      a pinch harmonic at shows.
--3-3-3--3--3--3--3-------------------|


  PM PM                                    
  S  S   E   S  E   E   S  E   S  S  S  S  
------------------------------------------|
------------------------------------------|
--------10--10-14--12--12-12--12-12-12-10-|
---------x---x--x---x---x--x---x--x--x--x-|
--0--0---8---8-12--10--10-10--10-10-10--8-|
--0--0------------------------------------|


   S  S  E   S  S  S E  S E   S  S S S  
---------------------------------------|
---------------------------------------|
---L-10-10--10-10-10-9--9-9--10-10-5-5-|
---L--x--x---x--x--x-x--x-x---x--x-x-x-|
---L--8--8---8--8--8-7--7-7---8--8-3-3-|
---------------------------------------|


  PM PM                                    
  S  S   E   S  E   E   S  E   S  S  S  S  
------------------------------------------|
------------------------------------------|
--------10--10-14--12--12-12--12-12-12-10-|
---------x---x--x---x---x--x---x--x--x--x-|
--0--0---8---8-12--10--10-10--10-10-10--8-|
--0--0------------------------------------|


   PM PM PM PM PM PM PM PM PM PM PM PM PM PM PM PM                     
   S  S  S  S  S  S  S  S  S  S  S  S  S  S  S  S    W                 
--------------------------------------------------|-------------------|
--------------17-17-------------------17-17-------|-------------------|
--------17-17-------17-17-------17-17-------17-17-|-------------------|
--15-15-------------------15-15-------------------|--8----------------|
--------------------------------------------------|--8----------------|
--------------------------------------------------|--8----------------|


  W                   W                   W                 
-------------------|-------------------|-------------------|
-------------------|-------------------|-------------------|
-------------------|-------------------|-------------------|
--L----------------|-------------------|-------------------|
--L----------------|--0----------------|--L----------------|
--L----------------|--0----------------|--L----------------|


   ^                                        ^                 
   W                   W                    W                 
--------------------|-------------------|--------------------|
--------------------|-------------------|--------------------|
--15----------------|--L----------------|--19----------------|
--15----------------|--L----------------|--19----------------|
--13----------------|--L----------------|--17----------------|
--------------------|-------------------|--------------------|


  W                    S S  S S  S  S  S  S S  S  S S  S  S  S  S  
-------------------|----------------------------------------------|
-------------------|--10---10---10-10-10-10---10-10---10-10-10-10-|
--L----------------|---9----9----9--9--9--9----9--9----9--9--9--9-|
--L----------------|---7----7----7--7--7--7----7--7----7--7--7--7-|
--L----------------|----------------------------------------------|
-------------------|----------------------------------------------|


   S S  S S  S  S  S  S S  S  S S  S  S  S  S  
----------------------------------------------|
--10---10---10-10-10-10---10-10---10-10-10-10-|
---9----9----9--9--9--9----9--9----9--9--9--9-|
---7----7----7--7--7--7----7--7----7--7--7--7-|
----------------------------------------------|
----------------------------------------------|


  S S S S S S S S S S S S S S S S    S S S S S S S S S S S S S S S S  
----------------------------------|----------------------------------|
--6---6---6-6-6-6---6-6---6-6-6-6-|--6---6---6-6-6-6---6-6---6-6-6-6-|
--5---5---5-5-5-5---5-5---5-5-5-5-|--5---5---5-5-5-5---5-5---5-5-5-5-|
--3---3---3-3-3-3---3-3---3-3-3-3-|--3---3---3-3-3-3---3-3---3-3-3-3-|
----------------------------------|----------------------------------|
----------------------------------|----------------------------------|


   S S  S S  S  S  S  S S  S  S S  S  S  S  S  
----------------------------------------------|
--10---10---10-10-10-10---10-10---10-10-10-10-|
---9----9----9--9--9--9----9--9----9--9--9--9-|
---7----7----7--7--7--7----7--7----7--7--7--7-|
----------------------------------------------|
----------------------------------------------|


   S S  S S  S  S  S  S S  S  S S  S  S  S  S  
----------------------------------------------|
--10---10---10-10-10-10---10-10---10-10-10-10-|
---9----9----9--9--9--9----9--9----9--9--9--9-|
---7----7----7--7--7--7----7--7----7--7--7--7-|
----------------------------------------------|
----------------------------------------------|


  S S S S S S S S S S S S S S S S    S S S S S S S S S S S S S S S S  
----------------------------------|----------------------------------|
--6---6---6-6-6-6---6-6---6-6-6-6-|--6---6---6-6-6-6---6-6---6-6-6-6-|
--5---5---5-5-5-5---5-5---5-5-5-5-|--5---5---5-5-5-5---5-5---5-5-5-5-|
--3---3---3-3-3-3---3-3---3-3-3-3-|--3---3---3-3-3-3---3-3---3-3-3-3-|
----------------------------------|----------------------------------|
----------------------------------|----------------------------------|


   S  S  S  S  S  S  S  S  S  S  S  S  S  S  S  S  
-----13-------15-13----13-------15-13----13-------|
--15----17-13-------17----17-13-------17----17-13-|
--------------------------------------------------|
--------------------------------------------------|
--------------------------------------------------|
--------------------------------------------------|


   S  S  S  S  S  S  S  S  S  S  S  S  S  S  S  S  
-----13-------15-13----13-------15-13----13-------|
--15----17-13-------17----17-13-------17----17-13-|
--------------------------------------------------|
--------------------------------------------------|
--------------------------------------------------|
--------------------------------------------------|


   S  S  S  S  S  S  S  S  S  S  S  S  S  S  S  S  
-----13-------15-13----13-------15-13----13-------|
--15----17-13-------17----17-13-------17----17-13-|
--------------------------------------------------|
--------------------------------------------------|
--------------------------------------------------|
--------------------------------------------------|


   S  S  S  S  S  S  S  S  S  S  S  S  S  S  S  S  
-----13-------15-13----13-------15-13----13-------|
--15----17-13-------17----17-13-------17----17-13-|
--------------------------------------------------|
--------------------------------------------------|
--------------------------------------------------|
--------------------------------------------------|


   S  S  S  S  S  S  S  S  S  S  S  S  S  S  S  S  
-----17-15----18-17-15-17-15----18-17-15-17-15----|
--18-------17----------------17----------------17-|
--------------------------------------------------|
--------------------------------------------------|
--------------------------------------------------|
--------------------------------------------------|


   S  S  S  S  S  S  S  S  S  S  S  S  S  S  S  S  
-----17-15----18-17-15-17-15----18-17-15-17-15----|
--18-------17----------------17----------------17-|
--------------------------------------------------|
--------------------------------------------------|
--------------------------------------------------|
--------------------------------------------------|


   S  S  S  S  S  S  S  S  S  S  S  S  S  S  S  S  
-----17-15----18-17-15-17-15----18-17-15-17-15----|
--18-------17----------------17----------------17-|
--------------------------------------------------|
--------------------------------------------------|
--------------------------------------------------|
--------------------------------------------------|


   S  S  S  S  S  S  S  H        S    W                 
-----17-15----18-17-15-------------|-------------------|
--18-------17----------17--------L-|--L----------------|
-----------------------------------|-------------------|
-----------------------------------|-------------------|
-----------------------------------|-------------------|
-----------------------------------|-------------------|


  PM PM   PM   PM   PM   PM   PM                PM   PM          PM   PM        
  S  S  S S  S S  S S  S S  S S  S  S  S S    S S  S S  S S S E  S  S S  S E.   
-------------------------------------------|-----------------------------------|
-------------------------------------------|-----------------------------------|
-------------------------------------------|-----------------------------------|
-------------------------------------------|-------3----2-3---------3----5-----|
--------5----3----5----8----7----5h-7p-5-1-|--L-1----1--------3--3----3--------|
--0--0----0----0----0----0----0------------|-----------------------------------|


  PM PM   PM   PM   PM   PM   PM             
  S  S  S S  S S  S S  S S  S S  S  S  S  S  
--------------------------------------------|
--------------------------------------------|
-----------------------------------------10-|
------------------------------------------x-|
--------5----3----5----8----7----5h-7p-5--8-|
--0--0----0----0----0----0----0-------------|


                                      PM PM   PM   PM   PM   PM   PM            
  S  S  E   S  S  S E  S E  S S E     S  S  S S  S S  S S  S S  S S  S  S  S S  
-----------------------------------|-------------------------------------------|
-----------------------------------|-------------------------------------------|
--L-10-10--10-10-10-9--9-9--9-9-9--|-------------------------------------------|
--L--x--x---x--x--x-x--x-x--x-x-x--|-------------------------------------------|
--L--8--8---8--8--8-7--7-7--7-7-7--|--------5----3----5----8----7----5h-7p-5-1-|
-----------------------------------|--0--0----0----0----0----0----0------------|


    PM   PM         PM   PM   PM   PH            
  S S  S S  S S S S S  T S  T S    S    S S S  
----------------------------------------------|
----------------------------------------------|
----------------------------------------------|
-------3----2-3-L-----------------------------|
--L-1----1----------0----0----0----5brb-L-L-L-|
--------------------0----0----0---------------|


   S  S  S  S  S  S  S  S  S  S  S  S  S   S   S  S  
----------------------------------------------------|
----------------------------------------------------|
----------------------------------------------------|
--12p-0-12p-0-10p-0-12p-0-15p-0-14p-0-12h-14p-12p-0-|
----------------------------------------------------|
----------------------------------------------------|


  S  S  S  S  S  S  S   S  S  S  S  S  S  S  S   S  
---------------------------------------------------|
---------------------------------------------------|
---------------------------------------------------|
--8p-0-12p-0-15p-0-14h-15-10p-0-15p-0-14p-0-15h-17-|
---------------------------------------------------|
---------------------------------------------------|


   S  S  S  S  S  S  S  S  S  S  S  S  S   S   S  S  
----------------------------------------------------|
----------------------------------------------------|
----------------------------------------------------|
--12p-0-12p-0-10p-0-12p-0-15p-0-14p-0-12h-14p-12p-0-|
----------------------------------------------------|
----------------------------------------------------|


  S  S  S  S  S  S  S   S  S  S  S  S  S  S  S   S  
---------------------------------------------------|
---------------------------------------------------|
---------------------------------------------------|
--8p-0-12p-0-15p-0-14h-15-10p-0-15p-0-14p-0-15h-17-|
---------------------------------------------------|
---------------------------------------------------|


   S  S  S  S  S  S  S  S  S  S  S  S  S   S   S  S  
----------------------------------------------------|
----------------------------------------------------|
----------------------------------------------------|
--12p-0-12p-0-10p-0-12p-0-15p-0-14p-0-12h-14p-12p-0-|
----------------------------------------------------|
----------------------------------------------------|


  S  S  S  S  S  S  S   S  S  S  S  S  S  S  S   S  
---------------------------------------------------|
---------------------------------------------------|
---------------------------------------------------|
--8p-0-12p-0-15p-0-14h-15-10p-0-15p-0-14p-0-15h-17-|
---------------------------------------------------|
---------------------------------------------------|


   S  S  S  S  S  S  S  S  S  S  S  S  S   S   S  S  
----------------------------------------------------|
----------------------------------------------------|
----------------------------------------------------|
--12p-0-12p-0-10p-0-12p-0-15p-0-14p-0-12h-14p-12p-0-|
----------------------------------------------------|
----------------------------------------------------|


                          PM   PM   PM PM PM       
  S  S  S  S  S  S  S   S S  T S  T S  S  S   S S  
--------------------------------------------------|
--------------------------------------------------|
---------------------------------------------10---|
--8p-0-12p-0-15p-0-14h-15---------------------x---|
--------------------------0----0----0--0--0---8---|
--------------------------0----0----0--0--0-------|


   S  E   E   S  E   S  S  S  E   S  E   
----------------------------------------|
----------------------------------------|
--10-14--12--12-12--12-12-12-10--10-10--|
---x--x---x---x--x---x--x--x--x---x--x--|
---8-12--10--10-10--10-10-10--8---8--8--|
----------------------------------------|


                             PM PM       
   S  S  S E  S S  S  S S E  S  S   S S  
----------------------------------------|
----------------------------------------|
--10-10-10-9--9-9-10-10-5-5--------10---|
---x--x--x-x--x-x--x--x-x-x---------x---|
---8--8--8-7--7-7--8--8-3-3--0--0---8---|
-----------------------------0--0-------|


                               PM PM      
   S  E   E   S  E   S  S  S S S  S  S S  
-----------------------------------------|
-----------------------------------------|
--10-14--12--12-12--12-12-12-------------|
---x--x---x---x--x---x--x--x-------------|
---8-12--10--10-10--10-10-10---0--0------|
-------------------------------0--0------|


      PM PM PM PM PM     PM PM   NH  PM PM          
  S T T  T  T  S  S  S S S  S    S S S  S   S S  S  
---------------------------------------------------|
-------------------------------<>5-L---------------|
-------------------------------<>5-L-------10---10-|
-------------------------------<>5-L--------x----x-|
------0--0--0--0--0------0--0--------0--0---8----8-|
------0--0--0--0--0------0--0--------0--0----------|


   E   E   S  E   S  S  S  E   S  E   S  
----------------------------------------|
----------------------------------------|
--14--12--12-12--12-12-12-10--10-10--10-|
---x---x---x--x---x--x--x--x---x--x---x-|
--12--10--10-10--10-10-10--8---8--8---8-|
----------------------------------------|


                          PM PM          
   S  S E  S S  S  S S E  S  S   S S  S  
----------------------------------------|
----------------------------------------|
--10-10-9--9-9-10-10-5-5--------10---10-|
---x--x-x--x-x--x--x-x-x---------x----x-|
---8--8-7--7-7--8--8-3-3--0--0---8----8-|
--------------------------0--0----------|


                            PM PM        
   E   E   S  E   S  S  S S S  S  S S S  
----------------------------------------|
----------------------------------------|
--14--12--12-12--12-12-12---------------|
---x---x---x--x---x--x--x---------------|
--12--10--10-10--10-10-10---0--0--------|
----------------------------0--0--------|


    PM PM PM PM PM     PM PM                                  
  T T  T  T  S  S  S S S  S  S S Q    E     W                 
-----------------------------------------|-------------------|
-----------------------------------------|-------------------|
-----------------------------------------|-------------------|
--------------------------------------L--|--L----------------|
----0--0--0--0--0------0--0------0----L--|--L----------------|
----0--0--0--0--0------0--0------0----L--|--L----------------|


                PM PM    PM    PM PM           PM PM PM       PM  
  E  S E  E  E  E  E  E  S     S  E  E  E  S S S  S  S  S S S S   
----------------------------|------------------------------------|
----------3-----------------|------------------------------------|
----------6-----------------|------------------------------------|
--L--L----------------------|------------------------------------|
--L--L----------0--0-----0--|--0--0------------0--0--0--------0--|
--L--L----------0--0-----0--|--0--0------------0--0--0--------0--|


    PM          PM PM    PM    PM PM          PM PM PM      PM  
  S E  E  E  E  E  E  E  S     S  S  E  E  E  S  S  S  E  S E   
----------------------------|----------------------------------|
----------3-----------------|----------------------------------|
----------6-----------------|----------------------------------|
--L-L-----------------------|----------------------------------|
----0-----------0--0-----0--|--0--0-----------0--0--0-------0--|
--L-0-----------0--0-----0--|--0--0-----------0--0--0-------0--|


  PM          PM PM    PM PM    PM          PM PM PM       PM PM  
  E  E  E  E  E  E  E  S  S     S  E  E  E  S  S  S  S S S E  S   
-----------------------------|-----------------------------------|
--------3--------------------|-----------------------------------|
--------6--------------------|-----------------------------------|
-----------------------------|-----------------------------------|
--0-----------0--0-----0--0--|--0-----------0--0--0--------0--0--|
--0-----------0--0-----0--0--|--0-----------0--0--0--------0--0--|


  PM   PM   PM PM   PM   PM PM   PM   PM PM  
  S  S S  S S  S  S S  S S  S  S S  S S  S   
--------------------------------------------|
-----4----4-------4----4-------4----4-------|
-----7----7-------7----7-------7----7-------|
--------------------------------------------|
--0----0----0--0----0----0--0----0----0--0--|
--0----0----0--0----0----0--0----0----0--0--|


  PM   PM   PM PM   PM   PM PM   PM   PM PM  
  S  S S  S S  S  S S  S S  S  S S  S S  S   
--------------------------------------------|
-----4----4-------4----4-------4----4-------|
-----7----7-------7----7-------7----7-------|
--------------------------------------------|
--0----0----0--0----0----0--0----0----0--0--|
--0----0----0--0----0----0--0----0----0--0--|


  PM   PM   PM PM   PM   PM PM   PM   PM PM  
  S  S S  S S  S  S S  S S  S  S S  S S  S   
--------------------------------------------|
--------------------------------------------|
--------------------------------------------|
--------------------------------------------|
--0----0----0--0----0----0--0----0----0--0--|
--0--6-0--6-0--0--6-0--6-0--0--6-0--6-0--0--|


  PM   PM   PM PM   PM   PM PM   PM   PM PM  
  S  S S  S S  S  S S  S S  S  S S  S S  S   
--------------------------------------------|
--------------------------------------------|
--------------------------------------------|
--------------------------------------------|
--0----0----0--0----0----0--0----0----0--0--|
--0--6-0--6-0--0--6-0--6-0--0--6-0--6-0--0--|


  PM   PM   PM PM   PM   PM PM   PM    PM  
  S  S S  S S  S  S S  S S  S  S S  E  S   
------------------------------------------|
-----6----6-------6----6-------6----6-----|
-----9----9-------9----9-------9----9-----|
------------------------------------------|
--0----0----0--0----0----0--0----0-----0--|
--0----0----0--0----0----0--0----0-----0--|


  PM   PM   PM PM   PM   PM PM         PM  
  S  S S  S S  S  S S  S S  S  S S S S S   
------------------------------------------|
-----6----6-------6----6-------6-6-6-6----|
-----9----9-------9----9-------9-9-9-9----|
------------------------------------------|
--0----0----0--0----0----0--0----------0--|
--0----0----0--0----0----0--0----------0--|


  PM   PM   PM PM   PM   PM PM   PM   PM PM  
  S  S S  S S  S  S S  S S  S  S S  S S  S   
--------------------------------------------|
-----4----4-------4----4-------4----4-------|
-----7----7-------7----7-------7----7-------|
--------------------------------------------|
--0----0----0--0----0----0--0----0----0--0--|
--0----0----0--0----0----0--0----0----0--0--|


  PM   PM   PM PM   PM   PM PM         PM  
  S  S S  S S  S  S S  S S  S  S S S S S   
------------------------------------------|
-----4----4-------4----4-------4-4-4-4----|
-----7----7-------7----7-------7-7-7-7----|
------------------------------------------|
--0----0----0--0----0----0--0----------0--|
--0----0----0--0----0----0--0----------0--|


  PM   PM   PM PM   PM   PM PM   PM    PM  
  S  S S  S S  S  S S  S S  S  S S  E  S   
------------------------------------------|
-----6----6-------6----6-------6----6-----|
-----9----9-------9----9-------9----9-----|
------------------------------------------|
--0----0----0--0----0----0--0----0-----0--|
--0----0----0--0----0----0--0----0-----0--|


  PM   PM   PM PM   PM   PM PM         PM  
  S  S S  S S  S  S S  S S  S  S S S S S   
------------------------------------------|
-----6----6-------6----6-------6-6-6-6----|
-----9----9-------9----9-------9-9-9-9----|
------------------------------------------|
--0----0----0--0----0----0--0----------0--|
--0----0----0--0----0----0--0----------0--|


  PM   PM   PM PM   PM   PM PM   PM   PM PM  
  S  S S  S S  S  S S  S S  S  S S  S S  S   
--------------------------------------------|
-----4----4-------4----4-------4----4-------|
-----7----7-------7----7-------7----7-------|
--------------------------------------------|
--0----0----0--0----0----0--0----0----0--0--|
--0----0----0--0----0----0--0----0----0--0--|


  PM   PM   PM PM   PM   PM PM            
  S  S S  S S  S  S S  S S  S  S S S S S  
-----------------------------------------|
-----4----4-------4----4-------4---4---4-|
-----7----7-------7----7---------7---7---|
-----------------------------------------|
--0----0----0--0----0----0--0------------|
--0----0----0--0----0----0--0------------|


   S S  S S  S  S  S  S S  S  S S  S  S  S  S  
----------------------------------------------|
--10---10---10-10-10-10---10-10---10-10-10-10-|
---9----9----9--9--9--9----9--9----9--9--9--9-|
---7----7----7--7--7--7----7--7----7--7--7--7-|
----------------------------------------------|
----------------------------------------------|


   S S  S S  S  S  S  S S  S  S S  S  S  S  S  
----------------------------------------------|
--10---10---10-10-10-10---10-10---10-10-10-10-|
---9----9----9--9--9--9----9--9----9--9--9--9-|
---7----7----7--7--7--7----7--7----7--7--7--7-|
----------------------------------------------|
----------------------------------------------|


  S S S S S S S S S S S S S S S S    S S S S S S S S S S S S S S S S  
----------------------------------|----------------------------------|
--6---6---6-6-6-6---6-6---6-6-6-6-|--6---6---6-6-6-6---6-6---6-6-6-6-|
--5---5---5-5-5-5---5-5---5-5-5-5-|--5---5---5-5-5-5---5-5---5-5-5-5-|
--3---3---3-3-3-3---3-3---3-3-3-3-|--3---3---3-3-3-3---3-3---3-3-3-3-|
----------------------------------|----------------------------------|
----------------------------------|----------------------------------|


   S S  S S  S  S  S  S S  S  S S  S  S  S  S  
----------------------------------------------|
--10---10---10-10-10-10---10-10---10-10-10-10-|
---9----9----9--9--9--9----9--9----9--9--9--9-|
---7----7----7--7--7--7----7--7----7--7--7--7-|
----------------------------------------------|
----------------------------------------------|


   S S  S S  S  S  S  S S  S  S S  S  S  S  S  
----------------------------------------------|
--10---10---10-10-10-10---10-10---10-10-10-10-|
---9----9----9--9--9--9----9--9----9--9--9--9-|
---7----7----7--7--7--7----7--7----7--7--7--7-|
----------------------------------------------|
----------------------------------------------|


  S S S S S S S S S S S S S S S S  
----------------------------------|
--6---6---6-6-6-6---6-6---6-6-6-6-|
--5---5---5-5-5-5---5-5---5-5-5-5-|
--3---3---3-3-3-3---3-3---3-3-3-3-|
----------------------------------|
----------------------------------|


   S  S  S  S  S  S  S  S  S  S  S  S  S  S  S  S  
--------------------------------------------------|
--------------------------------------12-13-15-15-|
-----------------------------12-13-15-------------|
--------------------12-13-15----------------------| <--- Can't figure this out... sorry.
-----------12-13-15-------------------------------|
--12-13-15----------------------------------------|


   S  S  S  S  S  S  S  S  S  S  S  S  S  S  S  S  
-----13-------15-13----13-------15-13----13-------|
--15----17-13-------17----17-13-------17----17-13-|
--------------------------------------------------|
--------------------------------------------------|
--------------------------------------------------|
--------------------------------------------------|


   S  S  S  S  S  S  S  S  S  S  S  S  S  S  S  S  
-----13-------15-13----13-------15-13----13-------|
--15----17-13-------17----17-13-------17----17-13-|
--------------------------------------------------|
--------------------------------------------------|
--------------------------------------------------|
--------------------------------------------------|


   S  S  S  S  S  S  S  S  S  S  S  S  S  S  S  S  
-----13-------15-13----13-------15-13----13-------|
--15----17-13-------17----17-13-------17----17-13-|
--------------------------------------------------|
--------------------------------------------------|
--------------------------------------------------|
--------------------------------------------------|


   S  S  S  S  S  S  S  S  S  S  S  S  S  S  S  S  
-----13-------15-13----13-------15-13----13-------|
--15----17-13-------17----17-13-------17----17-13-|
--------------------------------------------------|
--------------------------------------------------|
--------------------------------------------------|
--------------------------------------------------|


   S  S  S  S  S  S  S  S  S  S  S  S  S  S  S  S  
-----17-15----18-17-15-17-15----18-17-15-17-15----|
--18-------17----------------17----------------17-|
--------------------------------------------------|
--------------------------------------------------|
--------------------------------------------------|
--------------------------------------------------|


   S  S  S  S  S  S  S  S  S  S  S  S  S  S  S  S  
-----17-15----18-17-15-17-15----18-17-15-17-15----|
--18-------17----------------17----------------17-|
--------------------------------------------------|
--------------------------------------------------|
--------------------------------------------------|
--------------------------------------------------|


   S  S  S  S  S  S  S  S  S  S  S  S  S  S  S  S  
-----17-15----18-17-15-17-15----18-17-15-17-15----|
--18-------17----------------17----------------17-|
--------------------------------------------------|
--------------------------------------------------|
--------------------------------------------------|
--------------------------------------------------|


   S  S  S  S  S  S  S  H        S    W                 
-----17-15----18-17-15-------------|-------------------|
--18-------17----------17--------L-|--L----------------|
-----------------------------------|-------------------|
-----------------------------------|-------------------|
-----------------------------------|-------------------|
-----------------------------------|-------------------|


  E  E  E  E  E  E  E  E     E  E  E  E  E  E  E  E   
--0--0--0--0--0--0--0--0--|--0--0--0--0--0--0--0--0--|
--4--3--4--3--6--4--3--4--|--4--3--4--3--6--4--3--4--|
--------------------------|--------------------------|
--------------------------|--------------------------|
--------------------------|--------------------------|
--------------------------|--------------------------|


  E  E  E  E  E  E  E  E     E  E  E  E  E  E  E  E   
--0--0--0--0--0--0--0--0--|--0--0--0--0--0--0--0--0--|
--4--3--4--3--6--4--3--4--|--4--3--4--3--6--4--3--4--|
--------------------------|--------------------------|
--------------------------|--------------------------|
--------------------------|--------------------------|
--------------------------|--------------------------|


                                              PM PM     PM PM               
  S  S S  S S  S S  S S  S S  S S  S  S  S    S  S  S S S  S  Q    Q    E   
-------------------------------------------|-------------------------------|
-------------------------------------------|-------------------------------|
-------------------------------------------|-------------------------------|
-------------------------------------------|-------------------------------|
--5p-0-5p-0-3p-0-5p-0-8p-0-7p-0-5h-7p-5p-0-|--0--0------0--0---------------|
-------------------------------------------|--0--0------0--0---------------|


                                              PM PM     PM PM               
  S  S S  S S  S S  S S  S S  S S  S  S  S    S  S  S S S  S  Q    Q    E   
-------------------------------------------|-------------------------------|
-------------------------------------------|-------------------------------|
-------------------------------------------|-------------------------------|
-------------------------------------------|-------------------------------|
--5p-0-5p-0-3p-0-5p-0-8p-0-7p-0-5h-7p-5p-0-|--0--0------0--0---------------|
-------------------------------------------|--0--0------0--0---------------|


  S  S S  S S  S S  S S  S S  S S  S  S  S  
-------------------------------------------|
-------------------------------------------|
-------------------------------------------|
-------------------------------------------|
--5p-0-5p-0-3p-0-5p-0-8p-0-7p-0-5h-7p-5p-0-|
-------------------------------------------|


  S  S S  S S  S S  S S  S S  S S  S S   S   
--------------------------------------------|
--------------------------------------------|
--------------------------------------------|
--------------------------------------------|
--1p-0-5p-0-8p-0-7h-8-3p-0-8p-0-7p-0-8h-10p-|
--------------------------------------------|


                                              PM PM     PM PM               
  S  S S  S S  S S  S S  S S  S S  S  S  S    S  S  S S S  S  Q    Q    E   
-------------------------------------------|-------------------------------|
-------------------------------------------|-------------------------------|
-------------------------------------------|-------------------------------|
-------------------------------------------|-------------------------------|
--5p-0-5p-0-3p-0-5p-0-8p-0-7p-0-5h-7p-5p-0-|--0--0------0--0---------------|
-------------------------------------------|--0--0------0--0---------------|








|||||||||||||||||||||||||||||||||||||||||||||||
|||||||||||||||||||Guitar 2||||||||||||||||||||
|||||||||||||||||||||||||||||||||||||||||||||||



      S  S  S S  S  S  S S  S  S  S S  S   E  S  
E||---------------------------------------------|
B||---------------------------------------------|
G||---------------------------------------------|
D||--12-12-12---12-12-12---12-12-12---12S-10--8-|
A||--12-12-12---12-12-12---12-12-12---12S-10--8-|
D||--12-12-12---12-12-12---12-12-12---12S-10--8-|


  S S S S S S S S  S  S  S S  S S S S  
--------------------------------------|
--------------------------------------|
--L-----------------------------------|
--L-8-8---8---8---10-10-10---10-------|
--L-8-8---8---8---10-10-10---10-------|
----8-8---8---8---10-10-10---10-------|


   S  S  S S  S  S  S S  S  S  S S  S   E  S  
---------------------------------------------|
---------------------------------------------|
---------------------------------------------|
--12-12-12---12-12-12---12-12-12---12S-10--8-|
--12-12-12---12-12-12---12-12-12---12S-10--8-|
--12-12-12---12-12-12---12-12-12---12S-10--8-|


  S S S S S S S S  S  S  S S  S S  S S  
---------------------------------------|
---------------------------------------|
--L------------------------------------|
--L-8-8---8---8---10-10-10---10---10---|
--L-8-8---8---8---10-10-10---10---10---|
----8-8---8---8---10-10-10---10---10---|


   S  S  S S  S  S  S S  S  S  S S  S   E  S  
---------------------------------------------|
---------------------------------------------|
---------------------------------------------|
--12-12-12---12-12-12---12-12-12---12S-10--8-|
--12-12-12---12-12-12---12-12-12---12S-10--8-|
--12-12-12---12-12-12---12-12-12---12S-10--8-|


  S S S S S S S S  S  S  S S  S S  S S  
---------------------------------------|
---------------------------------------|
--L------------------------------------|
--L-8-8---8---8---10-10-10---10---10---|
--L-8-8---8---8---10-10-10---10---10---|
----8-8---8---8---10-10-10---10---10---|


   S  S  S S  S  S  S S  S  S  S S  S   E  S  
---------------------------------------------|
---------------------------------------------|
---------------------------------------------|
--12-12-12---12-12-12---12-12-12---12S-10--8-|
--12-12-12---12-12-12---12-12-12---12S-10--8-|
--12-12-12---12-12-12---12-12-12---12S-10--8-|


  S S S S S S S S  S  S  S S  S S  S S  
---------------------------------------|
---------------------------------------|
--L------------------------------------|
--L-8-8---8---8---10-10-10---10---10---|
--L-8-8---8---8---10-10-10---10---10---|
----8-8---8---8---10-10-10---10---10---|


   S  S  S S  S  S  S S  S  S  S S  S   E  S  
---------------------------------------------|
---------------------------------------------|
---------------------------------------------|
--12-12-12---12-12-12---12-12-12---12S-10----|
--12-12-12---12-12-12---12-12-12---12S-10----|
--12-12-12---12-12-12---12-12-12---12S-10----|


   PM PM PM PM PM PM PM PM PM PM PM PM PM PM PM   
   S  S  S  S  S  S  S  S  S  S  S  S  S  S  E    
-------------------------------------------------|
--------------13-13-------------------13-13------|
--------14-14-------14-14-------14-14-------14\--|
--12-12-------------------12-12------------------|
-------------------------------------------------|
-------------------------------------------------|


  PM PM                                  
  S  S   E   S  E   E   S  E   S  S  E   
----------------------------------------|
----------------------------------------|
--------10--10-14--12--12-12--12-12-12--|
---------x---x--x---x---x--x---x--x--x--|
--0--0---8---8-12--10--10-10--10-10-10--|
--0--0----------------------------------|


   PM PM PM PM PM PM PM PM PM PM PM PM PM PM PM   
   S  S  S  S  S  S  S  S  S  S  S  S  S  S  E    
-------------------------------------------------|
--------------13-13-------------------13-13------|
--------14-14-------14-14-------14-14-------14\--|
--12-12-------------------12-12------------------|
-------------------------------------------------|
-------------------------------------------------|


  PM PM                                  
  S  S   E   S  E   E   S  E   S  S  E   
----------------------------------------|
----------------------------------------|
--------10--10-14--12--12-12--12-12-12--|
---------x---x--x---x---x--x---x--x--x--|
--0--0---8---8-12--10--10-10--10-10-10--|
--0--0----------------------------------|


   PM PM PM PM PM PM PM PM PM PM PM PM PM PM PM   
   S  S  S  S  S  S  S  S  S  S  S  S  S  S  E    
-------------------------------------------------|
--------------13-13-------------------13-13------|
--------14-14-------14-14-------14-14-------14\--|
--12-12-------------------12-12------------------|
-------------------------------------------------|
-------------------------------------------------|


  PM PM                                  
  S  S   E   S  E   E   S  E   S  S  E   
----------------------------------------|
----------------------------------------|
--------10--10-14--12--12-12--12-12-12--|
---------x---x--x---x---x--x---x--x--x--|
--0--0---8---8-12--10--10-10--10-10-10--|
--0--0----------------------------------|


   PM PM PM PM PM PM PM PM PM PM PM PM PM PM PM   
   S  S  S  S  S  S  S  S  S  S  S  S  S  S  E    
-------------------------------------------------|
--------------13-13-------------------13-13------|
--------14-14-------14-14-------14-14-------14\--|
--12-12-------------------12-12------------------|
-------------------------------------------------|
-------------------------------------------------|


  PM PM                                  
  S  S   E   S  E   E   S  E   S  S  E   
----------------------------------------|
----------------------------------------|
--------10--10-14--12--12-12--12-12-12--|
---------x---x--x---x---x--x---x--x--x--|
--0--0---8---8-12--10--10-10--10-10-10--|
--0--0----------------------------------|


   PM PM PM PM PM PM PM PM PM PM PM PM PM PM PM                       
   S  S  S  S  S  S  S  S  S  S  S  S  S  S  E      W                 
-------------------------------------------------|-------------------|
--------------13-13-------------------13-13------|-------------------|
--------14-14-------14-14-------14-14-------14\--|-------------------|
--12-12-------------------12-12------------------|--8----------------|
-------------------------------------------------|--8----------------|
-------------------------------------------------|--8----------------|


                                           ^                 
  W                   W                    W                 
-------------------|-------------------|--------------------|
-------------------|-------------------|--------------------|
-------------------|-------------------|--------------------|
--L----------------|-------------------|--------------------|
--L----------------|--0----------------|---L----------------|
--L----------------|--0----------------|---L----------------|


-------------------|-------------------|-------------------|-------------------|
-------------------|-------------------|-------------------|-------------------|
-------------------|-------------------|-------------------|-------------------|
-------------------|-------------------|-------------------|-------------------|
-------------------|-------------------|-------------------|-------------------|
-------------------|-------------------|-------------------|-------------------|


   S S  S S  S  S  S  S S  S  S S  S  S  S  S  
----------------------------------------------|
--10---10---10-10-10-10---10-10---10-10-10-10-|
---9----9----9--9--9--9----9--9----9--9--9--9-|
---7----7----7--7--7--7----7--7----7--7--7--7-|
----------------------------------------------|
----------------------------------------------|


   S S  S S  S  S  S  S S  S  S S  S  S  S  S  
----------------------------------------------|
--10---10---10-10-10-10---10-10---10-10-10-10-|
---9----9----9--9--9--9----9--9----9--9--9--9-|
---7----7----7--7--7--7----7--7----7--7--7--7-|
----------------------------------------------|
----------------------------------------------|


  S S S S S S S S S S S S S S S S    S S S S S S S S S S S S S S S S  
----------------------------------|----------------------------------|
--6---6---6-6-6-6---6-6---6-6-6-6-|--6---6---6-6-6-6---6-6---6-6-6-6-|
--5---5---5-5-5-5---5-5---5-5-5-5-|--5---5---5-5-5-5---5-5---5-5-5-5-|
--3---3---3-3-3-3---3-3---3-3-3-3-|--3---3---3-3-3-3---3-3---3-3-3-3-|
----------------------------------|----------------------------------|
----------------------------------|----------------------------------|


   S S  S S  S  S  S  S S  S  S S  S  S  S  S  
----------------------------------------------|
--10---10---10-10-10-10---10-10---10-10-10-10-|
---9----9----9--9--9--9----9--9----9--9--9--9-|
---7----7----7--7--7--7----7--7----7--7--7--7-|
----------------------------------------------|
----------------------------------------------|


   S S  S S  S  S  S  S S  S  S S  S  S  S  S  
----------------------------------------------|
--10---10---10-10-10-10---10-10---10-10-10-10-|
---9----9----9--9--9--9----9--9----9--9--9--9-|
---7----7----7--7--7--7----7--7----7--7--7--7-|
----------------------------------------------|
----------------------------------------------|


  S S S S S S S S S S S S S S S S    S S S S S S S S S S S S S S S S  
----------------------------------|----------------------------------|
--6---6---6-6-6-6---6-6---6-6-6-6-|--6---6---6-6-6-6---6-6---6-6-6-6-|
--5---5---5-5-5-5---5-5---5-5-5-5-|--5---5---5-5-5-5---5-5---5-5-5-5-|
--3---3---3-3-3-3---3-3---3-3-3-3-|--3---3---3-3-3-3---3-3---3-3-3-3-|
----------------------------------|----------------------------------|
----------------------------------|----------------------------------|


   S S  S S  S  S  S  S S  S  S S  S  S  S  S  
----------------------------------------------|
--10---10---10-10-10-10---10-10---10-10-10-10-|
---9----9----9--9--9--9----9--9----9--9--9--9-|
---7----7----7--7--7--7----7--7----7--7--7--7-|
----------------------------------------------|
----------------------------------------------|


   S S  S S  S  S  S  S S  S  S S  S  S  S  S  
----------------------------------------------|
--10---10---10-10-10-10---10-10---10-10-10-10-|
---9----9----9--9--9--9----9--9----9--9--9--9-|
---7----7----7--7--7--7----7--7----7--7--7--7-|
----------------------------------------------|
----------------------------------------------|


  S S S S S S S S S S S S S S S S    S S S S S S S S S S S S S S S S  
----------------------------------|----------------------------------|
--6---6---6-6-6-6---6-6---6-6-6-6-|--6---6---6-6-6-6---6-6---6-6-6-6-|
--5---5---5-5-5-5---5-5---5-5-5-5-|--5---5---5-5-5-5---5-5---5-5-5-5-|
--3---3---3-3-3-3---3-3---3-3-3-3-|--3---3---3-3-3-3---3-3---3-3-3-3-|
----------------------------------|----------------------------------|
----------------------------------|----------------------------------|


   S S  S S  S  S  S  S S  S  S S  S  S  S  S  
----------------------------------------------|
--10---10---10-10-10-10---10-10---10-10-10-10-|
---9----9----9--9--9--9----9--9----9--9--9--9-|
---7----7----7--7--7--7----7--7----7--7--7--7-|
----------------------------------------------|
----------------------------------------------|


   S S  S S  S  S  S  S S  S  S S  S  S  S  S  
----------------------------------------------|
--10---10---10-10-10-10---10-10---10-10-10-10-|
---9----9----9--9--9--9----9--9----9--9--9--9-|
---7----7----7--7--7--7----7--7----7--7--7--7-|
----------------------------------------------|
----------------------------------------------|


  S S S S S S S S S S S S S S S S  
----------------------------------|
--6---6---6-6-6-6---6-6---6-6-6-6-|
--5---5---5-5-5-5---5-5---5-5-5-5-|
--3---3---3-3-3-3---3-3---3-3-3-3-|
----------------------------------|
----------------------------------|


  S S S S S S S S T T T T T T T T T T T T T T T T    W                 
--------------------------------------------------|-------------------|
--6---6---6-6-6-6---------------------------------|--L----------------|
--5---5---5-5-5-5---------------------------------|--L----------------|
--3---3---3-3-3-3---------------------------------|--L----------------|
--------------------------------------------------|-------------------|
--------------------------------------------------|-------------------|


-------------------|-------------------|
-------------------|-------------------|
-------------------|-------------------|
-------------------|-------------------|
-------------------|-------------------|
-------------------|-------------------|


   S  S  S S  S  S  S S  S  S  S S  S   E  S  
---------------------------------------------|
---------------------------------------------|
---------------------------------------------|
--12-12-12---12-12-12---12-12-12---12S-10--8-|
--12-12-12---12-12-12---12-12-12---12S-10--8-|
--12-12-12---12-12-12---12-12-12---12S-10--8-|


  S S S S S S S S  S  S  S S  S S  S S  
---------------------------------------|
---------------------------------------|
--L------------------------------------|
--L-8-8---8---8---10-10-10---10---10---|
--L-8-8---8---8---10-10-10---10---10---|
----8-8---8---8---10-10-10---10---10---|


   S  S  S S  S  S  S S  S  S  S S  S   E  S  
---------------------------------------------|
---------------------------------------------|
---------------------------------------------|
--12-12-12---12-12-12---12-12-12---12S-10--8-|
--12-12-12---12-12-12---12-12-12---12S-10--8-|
--12-12-12---12-12-12---12-12-12---12S-10--8-|


                  PM   PM   PM PM          PM PM      PM PM PM PM    PM PM      
  S S S S S S S S S  T S  T S  S  S S S    S  S  Q    S  S  S  S  E  S  S  S S  
----------------------------------------|--------------------------------------|
----------------------------------------|--------------------------------------|
--L-L-----------------------------------|--------------------------------------|
--L-L-8---8---8-------------------------|--------------------------------------|
--L-L-8---8---8---0----0----0--0--------|--0--0-------0--0--0--0-----0--0------|
------8---8---8---0----0----0--0--------|--0--0-------0--0--0--0-----0--0------|


  PM PM      PM PM PM PM    PM          PM PM      PM PM PM PM    PM PM      
  S  S  Q    S  S  S  S  E  S  S S S    S  S  Q    S  S  S  S  E  S  S  S S  
-------------------------------------|--------------------------------------|
-------------------------------------|--------------------------------------|
-------------------------------------|--------------------------------------|
-------------------------------------|--------------------------------------|
--0--0-------0--0--0--0-----0--L-----|--0--0-------0--0--0--0-----0--0------|
--0--0-------0--0--0--0-----0--L-----|--0--0-------0--0--0--0-----0--0------|


  PM PM      PM PM PM PM    PM          PM PM      PM PM PM PM    PM PM      
  S  S  Q    S  S  S  S  E  S  S S S    S  S  Q    S  S  S  S  E  S  S  S S  
-------------------------------------|--------------------------------------|
-------------------------------------|--------------------------------------|
-------------------------------------|--------------------------------------|
-------------------------------------|--------------------------------------|
--0--0-------0--0--0--0-----0--L-----|--0--0-------0--0--0--0-----0--0------|
--0--0-------0--0--0--0-----0--L-----|--0--0-------0--0--0--0-----0--0------|


  PM PM      PM PM PM PM    PM          PM PM      PM PM PM PM    PM PM      
  S  S  Q    S  S  S  S  E  S  S S S    S  S  Q    S  S  S  S  E  S  S  S S  
-------------------------------------|--------------------------------------|
-------------------------------------|--------------------------------------|
-------------------------------------|--------------------------------------|
-------------------------------------|--------------------------------------|
--0--0-------0--0--0--0-----0--L-----|--0--0-------0--0--0--0-----0--0------|
--0--0-------0--0--0--0-----0--L-----|--0--0-------0--0--0--0-----0--0------|


  PM PM      PM PM PM   PM   PM PM PM       
  S  S  Q    S  S  S  T S  T S  S  S   S S  
-------------------------------------------|
-------------------------------------------|
--------------------------------------10---|
---------------------------------------x---|
--0--0-------0--0--0----0----0--0--0---8---|
--0--0-------0--0--0----0----0--0--0-------|


                             PM  PM PM PM PM 
   S  E   E   S  E   S  S  S S   S  S  S  S  
--------------------------------------------|
--------------------------------------------|
--10-14--12--12-12--12-12-12----------14-14-|
---x--x---x---x--x---x--x--x----12-12-------|
---8-12--10--10-10--10-10-10-0--------------|
-----------------------------0--------------|


   PM PM PM PM PM PM PM PM PM PM      PM PM       
   S  S  S  S  S  S  S  S  S  S  S  S S  S   S S  
-------------------------------------------------|
--13-13-------------------13-13------------------|
--------14-14-------14-14-------14\-L-------10---|
--------------12-12--------------------------x---|
--------------------------------------0--0---8---|
--------------------------------------0--0-------|


                               PM PM      
   S  E   E   S  E   S  S  S S S  S  S S  
-----------------------------------------|
-----------------------------------------|
--10-14--12--12-12--12-12-12-------------|
---x--x---x---x--x---x--x--x-------------|
---8-12--10--10-10--10-10-10---0--0------|
-------------------------------0--0------|


      PM PM PM PM PM     PM PM     PM PM          
  S T T  T  T  S  S  S S S  S  S S S  S   S S  S  
-------------------------------------------------|
-------------------------------------------------|
-----------------------------------------10---10-|
------------------------------------------x----x-|
------0--0--0--0--0------0--0------0--0---8----8-|
------0--0--0--0--0------0--0------0--0----------|


                             PM PM PM PM PM 
   E   E   S  E   S  S  S S  S  S  S  S  S  
-------------------------------------------|
----------------------------------------13-|
--14--12--12-12--12-12-12---------14-14----|
---x---x---x--x---x--x--x---15-15----------|
--12--10--10-10--10-10-10------------------|
-------------------------------------------|


   PM PM PM PM PM PM PM PM PM PM PMPM PM          
   S  S  S  S  S  S  S  S  S  S  S S  S   S S  S  
-------------------------------------------------|
--13-------------------13-13---------------------|
-----14-14-------14-14-------14-14-------10---10-|
-----------15-15--------------------------x----x-|
-----------------------------------0--0---8----8-|
-----------------------------------0--0----------|


                            PM PM        
   E   E   S  E   S  S  S S S  S  S S S  
----------------------------------------|
----------------------------------------|
--14--12--12-12--12-12-12---------------|
---x---x---x--x---x--x--x---------------|
--12--10--10-10--10-10-10---0--0--------|
----------------------------0--0--------|


    PM PM PM PM PM     PM PM                                  
  T T  T  T  S  S  S S S  S  S S Q    E     W                 
-----------------------------------------|-------------------|
-----------------------------------------|-------------------|
-----------------------------------------|-------------------|
--------------------------------------L--|--L----------------|
----0--0--0--0--0------0--0------0----L--|--L----------------|
----0--0--0--0--0------0--0------0----L--|--L----------------|


                PM PM    PM    PM PM           PM PM PM       PM  
  E  S E  E  E  E  E  E  S     S  E  E  E  S S S  S  S  S S S S   
----------------------------|------------------------------------|
-------4-----4--------------|------------------------------------|
-------7-----7--------------|------------------------------------|
----------------------------|------------------------------------|
--L--L----------0--0-----0--|--0--0------------0--0--0--------0--|
--L--L----------0--0-----0--|--0--0------------0--0--0--------0--|


    PM          PM PM    PM    PM PM          PM PM PM      PM  
  S E  E  E  E  E  E  E  S     S  S  E  E  E  S  S  S  E  S E   
----------------------------|----------------------------------|
-------4-----4--------------|----------------------------------|
-------7-----7--------------|----------------------------------|
--L-L-----------------------|----------------------------------|
----0-----------0--0-----0--|--0--0-----------0--0--0-------0--|
--L-0-----------0--0-----0--|--0--0-----------0--0--0-------0--|


  PM          PM PM    PM PM    PM          PM PM PM       PM PM  
  E  E  E  E  E  E  E  S  S     S  E  E  E  S  S  S  S S S E  S   
-----------------------------|-----------------------------------|
-----4-----4-----------------|-----------------------------------|
-----7-----7-----------------|-----------------------------------|
-----------------------------|-----------------------------------|
--0-----------0--0-----0--0--|--0-----------0--0--0--------0--0--|
--0-----------0--0-----0--0--|--0-----------0--0--0--------0--0--|


  S S S S S S S S S S S S S E  S    S S S S S S S S S S S S S E  S  
---------------------------------|---------------------------------|
----4---4-----4---4-----4---4----|----4---4-----4---4-----4---4----|
----7---7-----7---7-----7---7----|----7---7-----7---7-----7---7----|
---------------------------------|---------------------------------|
---------------------------------|---------------------------------|
---------------------------------|---------------------------------|


  S S S S S S S S S S S S S E  S    S S S S S S S S S S S S S E  S  
---------------------------------|---------------------------------|
----4---4-----4---4-----4---4----|----4---4-----4---4-----4---4----|
----7---7-----7---7-----7---7----|----7---7-----7---7-----7---7----|
---------------------------------|---------------------------------|
---------------------------------|---------------------------------|
---------------------------------|---------------------------------|


  PM   PM   PM PM   PM   PM PM   PM    PM  
  S  S S  S S  S  S S  S S  S  S S  E  S   
------------------------------------------|
-----6----6-------6----6-------6----6-----|
-----9----9-------9----9-------9----9-----|
------------------------------------------|
--0----0----0--0----0----0--0----0-----0--|
--0----0----0--0----0----0--0----0-----0--|


  PM   PM   PM PM   PM   PM PM         PM  
  S  S S  S S  S  S S  S S  S  S S S S S   
------------------------------------------|
-----6----6-------6----6-------6-6-6-6----|
-----9----9-------9----9-------9-9-9-9----|
------------------------------------------|
--0----0----0--0----0----0--0----------0--|
--0----0----0--0----0----0--0----------0--|


  PM   PM   PM PM   PM   PM PM   PM   PM PM  
  S  S S  S S  S  S S  S S  S  S S  S S  S   
--------------------------------------------|
-----4----4-------4----4-------4----4-------|
-----7----7-------7----7-------7----7-------|
--------------------------------------------|
--0----0----0--0----0----0--0----0----0--0--|
--0----0----0--0----0----0--0----0----0--0--|


  PM   PM   PM PM   PM   PM PM         PM  
  S  S S  S S  S  S S  S S  S  S S S S S   
------------------------------------------|
-----4----4-------4----4-------4-4-4-4----|
-----7----7-------7----7-------7-7-7-7----|
------------------------------------------|
--0----0----0--0----0----0--0----------0--|
--0----0----0--0----0----0--0----------0--|


  PM   PM   PM PM   PM   PM PM   PM    PM  
  S  S S  S S  S  S S  S S  S  S S  E  S   
------------------------------------------|
-----6----6-------6----6-------6----6-----|
-----9----9-------9----9-------9----9-----|
------------------------------------------|
--0----0----0--0----0----0--0----0-----0--|
--0----0----0--0----0----0--0----0-----0--|


  PM   PM   PM PM   PM   PM PM         PM  
  S  S S  S S  S  S S  S S  S  S S S S S   
------------------------------------------|
-----6----6-------6----6-------6-6-6-6----|
-----9----9-------9----9-------9-9-9-9----|
------------------------------------------|
--0----0----0--0----0----0--0----------0--|
--0----0----0--0----0----0--0----------0--|


  PM   PM   PM PM   PM   PM PM   PM   PM PM  
  S  S S  S S  S  S S  S S  S  S S  S S  S   
--------------------------------------------|
-----4----4-------4----4-------4----4-------|
-----7----7-------7----7-------7----7-------|
--------------------------------------------|
--0----0----0--0----0----0--0----0----0--0--|
--0----0----0--0----0----0--0----0----0--0--|


  PM   PM   PM PM   PM   PM PM            
  S  S S  S S  S  S S  S S  S  S S S S S  
-----------------------------------------|
-----4----4-------4----4-------4---4---4-|
-----7----7-------7----7---------7---7---|
-----------------------------------------|
--0----0----0--0----0----0--0------------|
--0----0----0--0----0----0--0------------|


   S S  S S  S  S  S  S S  S  S S  S  S  S  S  
----------------------------------------------|
--10---10---10-10-10-10---10-10---10-10-10-10-|
---9----9----9--9--9--9----9--9----9--9--9--9-|
---7----7----7--7--7--7----7--7----7--7--7--7-|
----------------------------------------------|
----------------------------------------------|


   S S  S S  S  S  S  S S  S  S S  S  S  S  S  
----------------------------------------------|
--10---10---10-10-10-10---10-10---10-10-10-10-|
---9----9----9--9--9--9----9--9----9--9--9--9-|
---7----7----7--7--7--7----7--7----7--7--7--7-|
----------------------------------------------|
----------------------------------------------|


  S S S S S S S S S S S S S S S S    S S S S S S S S S S S S S S S S  
----------------------------------|----------------------------------|
--6---6---6-6-6-6---6-6---6-6-6-6-|--6---6---6-6-6-6---6-6---6-6-6-6-|
--5---5---5-5-5-5---5-5---5-5-5-5-|--5---5---5-5-5-5---5-5---5-5-5-5-|
--3---3---3-3-3-3---3-3---3-3-3-3-|--3---3---3-3-3-3---3-3---3-3-3-3-|
----------------------------------|----------------------------------|
----------------------------------|----------------------------------|


   S S  S S  S  S  S  S S  S  S S  S  S  S  S  
----------------------------------------------|
--10---10---10-10-10-10---10-10---10-10-10-10-|
---9----9----9--9--9--9----9--9----9--9--9--9-|
---7----7----7--7--7--7----7--7----7--7--7--7-|
----------------------------------------------|
----------------------------------------------|


   S S  S S  S  S  S  S S  S  S S  S  S  S  S  
----------------------------------------------|
--10---10---10-10-10-10---10-10---10-10-10-10-|
---9----9----9--9--9--9----9--9----9--9--9--9-|
---7----7----7--7--7--7----7--7----7--7--7--7-|
----------------------------------------------|
----------------------------------------------|


  S S S S S S S S S S S S S S S S    S S S S S S S S S S S S S S S S  
----------------------------------|----------------------------------|
--6---6---6-6-6-6---6-6---6-6-6-6-|--6---6---6-6-6-6---6-6---6-6-6-6-|
--5---5---5-5-5-5---5-5---5-5-5-5-|--5---5---5-5-5-5---5-5---5-5-5-5-|
--3---3---3-3-3-3---3-3---3-3-3-3-|--3---3---3-3-3-3---3-3---3-3-3-3-|
----------------------------------|----------------------------------|
----------------------------------|----------------------------------|


   S S  S S  S  S  S  S S  S  S S  S  S  S  S  
----------------------------------------------|
--10---10---10-10-10-10---10-10---10-10-10-10-|
---9----9----9--9--9--9----9--9----9--9--9--9-|
---7----7----7--7--7--7----7--7----7--7--7--7-|
----------------------------------------------|
----------------------------------------------|


   S S  S S  S  S  S  S S  S  S S  S  S  S  S  
----------------------------------------------|
--10---10---10-10-10-10---10-10---10-10-10-10-|
---9----9----9--9--9--9----9--9----9--9--9--9-|
---7----7----7--7--7--7----7--7----7--7--7--7-|
----------------------------------------------|
----------------------------------------------|


  S S S S S S S S S S S S S S S S    S S S S S S S S S S S S S S S S  
----------------------------------|----------------------------------|
--6---6---6-6-6-6---6-6---6-6-6-6-|--6---6---6-6-6-6---6-6---6-6-6-6-|
--5---5---5-5-5-5---5-5---5-5-5-5-|--5---5---5-5-5-5---5-5---5-5-5-5-|
--3---3---3-3-3-3---3-3---3-3-3-3-|--3---3---3-3-3-3---3-3---3-3-3-3-|
----------------------------------|----------------------------------|
----------------------------------|----------------------------------|


   S S  S S  S  S  S  S S  S  S S  S  S  S  S  
----------------------------------------------|
--10---10---10-10-10-10---10-10---10-10-10-10-|
---9----9----9--9--9--9----9--9----9--9--9--9-|
---7----7----7--7--7--7----7--7----7--7--7--7-|
----------------------------------------------|
----------------------------------------------|


   S S  S S  S  S  S  S S  S  S S  S  S  S  S  
----------------------------------------------|
--10---10---10-10-10-10---10-10---10-10-10-10-|
---9----9----9--9--9--9----9--9----9--9--9--9-|
---7----7----7--7--7--7----7--7----7--7--7--7-|
----------------------------------------------|
----------------------------------------------|


  S S S S S S S S S S S S S S S S  
----------------------------------|
--6---6---6-6-6-6---6-6---6-6-6-6-|
--5---5---5-5-5-5---5-5---5-5-5-5-|
--3---3---3-3-3-3---3-3---3-3-3-3-|
----------------------------------|
----------------------------------|


  S S S S S S S S T T T T T T T T T T T T T T T T    W                 
--------------------------------------------------|-------------------|
--6---6---6-6-6-6---------------------------------|--L----------------|
--5---5---5-5-5-5---------------------------------|--L----------------|
--3---3---3-3-3-3---------------------------------|--L----------------|
--------------------------------------------------|-------------------|
--------------------------------------------------|-------------------|


  PM PM     PM PM         PM PM PM PM PM PM    PM PM     PM PM             
  S  S  S S S  S  S S S S S  S  S  S  S  S     S  S  S S S  Q    Q    E.   
--------------------------------------------|-----------------------------|
--------------------------------------------|-----------------------------|
--------------------------------------------|-----------------------------|
--------------------------------------------|-----------------------------|
--0--0------0--0----------0--0--0--0--0--0--|--0--0------0--0-------------|
--0--0------0--0----------0--0--0--0--0--0--|--0--0------0--0-------------|


  PM PM     PM PM         PM PM PM PM PM PM    PM PM     PM PM             
  S  S  S S S  S  S S S S S  S  S  S  S  S     S  S  S S S  Q    Q    E.   
--------------------------------------------|-----------------------------|
--------------------------------------------|-----------------------------|
--------------------------------------------|-----------------------------|
--------------------------------------------|-----------------------------|
--0--0------0--0----------0--0--0--0--0--0--|--0--0------0--0-------------|
--0--0------0--0----------0--0--0--0--0--0--|--0--0------0--0-------------|


  PM PM     PM PM         PM PM PM PM PM PM    PM PM     PM PM             
  S  S  S S S  S  S S S S S  S  S  S  S  S     S  S  S S S  Q    Q    E.   
--------------------------------------------|-----------------------------|
--------------------------------------------|-----------------------------|
--------------------------------------------|-----------------------------|
--------------------------------------------|-----------------------------|
--0--0------0--0----------0--0--0--0--0--0--|--0--0------0--0-------------|
--0--0------0--0----------0--0--0--0--0--0--|--0--0------0--0-------------|


  PM PM     PM PM         PM PM PM PM PM PM    PM PM     PM PM               
  S  S  S S S  S  S S S S S  S  S  S  S  S     S  S  S S S  S  Q    Q    E   
--------------------------------------------|-------------------------------|
--------------------------------------------|-------------------------------|
--------------------------------------------|-------------------------------|
--------------------------------------------|-------------------------------|
--0--0------0--0----------0--0--0--0--0--0--|--0--0------0--0---------------|
--0--0------0--0----------0--0--0--0--0--0--|--0--0------0--0---------------|


  PM PM     PM PM         PM PM PM PM PM PM    PM PM     PM PM               
  S  S  S S S  S  S S S S S  S  S  S  S  S     S  S  S S S  S  Q    Q    E   
--------------------------------------------|-------------------------------|
--------------------------------------------|-------------------------------|
--------------------------------------------|-------------------------------|
--------------------------------------------|-------------------------------|
--0--0------0--0----------0--0--0--0--0--0--|--0--0------0--0---------------|
--0--0------0--0----------0--0--0--0--0--0--|--0--0------0--0---------------|


  PM PM     PM PM         PM PM PM PM PM PM    PM PM     PM PM               
  S  S  S S S  S  S S S S S  S  S  S  S  S     S  S  S S S  S  Q    Q    E   
--------------------------------------------|-------------------------------|
--------------------------------------------|-------------------------------|
--------------------------------------------|-------------------------------|
--------------------------------------------|-------------------------------|
--0--0------0--0----------0--0--0--0--0--0--|--0--0------0--0---------------|
--0--0------0--0----------0--0--0--0--0--0--|--0--0------0--0---------------|






Duration Legend
---------------
W - whole
H - half
Q - quarter
E - 8th
S - 16th
T - 32nd
X - 64th
. - note dotted
|-n-|  - n-tuplets


Tablature Legend
----------------
L - tied note
x - dead note
g - grace note
(n) - ghost note
> - accentuded note
NH - natural harmonic
AH - artificial harmonic
TH - tapped harmonic
SH - semi harmonic
PH - pinch harmonic
h - hammer on
p - pull off
b - bend
br - bendRelease
pb - preBend
pbr - preBendRelease
brb - bendReleaseBend
\n/ - tremolo bar dip
\n - tremolo bar dive
-/n - tremolo bar Release up
/n\ - tremolo bar inverted dip
/n - tremolo bar return
-\n - tremolo bar Release down
S - shift slide
s - legato slide
/ -  slide into from below or out of upwards
\ -  slide into from above or out of downwards
~ - vibrato
W - wide vibrato
tr - trill
TP - tremolo picking
T - tapping
S - slap
P - pop
< - fade in
^ - brush up
v - brush down

            
            
Suggest correction
Creating personal tab
Creating personal tab
You can edit any tab online and save it as your Personal.

You can edit, replace or remove any tab part or add personal notes – all changes will be seen only by you.

Personal tabs can be accessed anytime from any device, even offline.
Learn more »
comments
print report bad tab
16 comments total. Showing first comments.
0 reply
Ch30d05 10 Jan 08, 2007 02:03 PM

e---------------------------5-6-8-8-8--------------------------
b---------------------5-6-8-------------------------------------
g-----------------5-7----------------------------------------
d-----------5-7-8--------------------------------------------
a-----5-7-8------------------------------------------------
D-------------------------------------------------------

0 reply
Ch30d05 10 Jan 08, 2007 02:05 PM

oh yeah thats the roll in at the end of the song.... ur welcome

0 reply
i suk @ tabbing 10 Feb 10, 2007 05:07 PM

hey good job.
finally a good tab of this song.
i actually had pretty much the same tab as yours but i never got around to posting it. awesome tab.

guest
You may want to rate the tab now too:
select rating
Wanna post a correction for this tab? Suggest correction